999
dxfrw 0.6.3
  0
SECTION
  2
HEADER
  9
$ACADVER
  1
AC1021
  9
$DWGCODEPAGE
  3
ANSI_1252
  9
$INSBASE
 10
0
 20
0
 30
0
  9
$EXTMIN
 10
-750.3574332170316
 20
-1033.391938259139
 30
0
  9
$EXTMAX
 10
954.6228907404879
 20
108.7671707978407
 30
0
  9
$LIMMIN
 10
0
 20
0
  9
$LIMMAX
 10
12
 20
9
  9
$ORTHOMODE
 70
    0
  9
$REGENMODE
 70
    1
  9
$FILLMODE
 70
    1
  9
$QTEXTMODE
 70
    0
  9
$MIRRTEXT
 70
    1
  9
$LTSCALE
 40
1
  9
$ATTMODE
 70
    1
  9
$TEXTSIZE
 40
4
  9
$TRACEWID
 40
0.05
  9
$TEXTSTYLE
  7
Standard
  9
$CLAYER
  8
Defpoints
  9
$CELTYPE
  6
ByLayer
  9
$CECOLOR
 62
    1
  9
$CELTSCALE
 40
1
  9
$DISPSILH
 70
    0
  9
$DIMSCALE
 40
1
  9
$DIMASZ
 40
2.5
  9
$DIMEXO
 40
0.0625
  9
$DIMDLI
 40
0.38
  9
$DIMRND
 40
0
  9
$DIMDLE
 40
0
  9
$DIMEXE
 40
10
  9
$DIMTP
 40
0.02
  9
$DIMTM
 40
-0.001
  9
$DIMTXT
 40
5
  9
$DIMCEN
 40
0.09
  9
$DIMTSZ
 40
0
  9
$DIMTOL
 70
    0
  9
$DIMLIM
 70
    0
  9
$DIMTIH
 70
    1
  9
$DIMTOH
 70
    1
  9
$DIMSE1
 70
    0
  9
$DIMSE2
 70
    0
  9
$DIMTAD
 70
    0
  9
$DIMZIN
 70
    0
  9
$DIMBLK
  1

  9
$DIMASO
 70
    1
  9
$DIMSHO
 70
    1
  9
$DIMPOST
  1

  9
$DIMAPOST
  1

  9
$DIMALT
 70
    0
  9
$DIMALTD
 70
    2
  9
$DIMALTF
 40
25.4
  9
$DIMLFAC
 40
1
  9
$DIMTOFL
 70
    0
  9
$DIMTVP
 40
0
  9
$DIMTIX
 70
    0
  9
$DIMSOXD
 70
    0
  9
$DIMSAH
 70
    0
  9
$DIMBLK1
  1

  9
$DIMBLK2
  1

  9
$DIMSTYLE
  2
Standard
  9
$DIMCLRD
 70
    0
  9
$DIMCLRE
 70
    0
  9
$DIMCLRT
 70
    0
  9
$DIMTFAC
 40
1
  9
$DIMGAP
 40
0.09
  9
$DIMJUST
 70
    0
  9
$DIMSD1
 70
    0
  9
$DIMSD2
 70
    0
  9
$DIMTOLJ
 70
    1
  9
$DIMTZIN
 70
    0
  9
$DIMALTZ
 70
    0
  9
$DIMALTTZ
 70
    0
  9
$DIMUPT
 70
    0
  9
$DIMDEC
 70
    4
  9
$DIMTDEC
 70
    4
  9
$DIMALTU
 70
    2
  9
$DIMALTTD
 70
    2
  9
$DIMTXSTY
  7
Standard
  9
$DIMAUNIT
 70
    0
  9
$DIMADEC
 70
    0
  9
$DIMALTRND
 40
0
  9
$DIMAZIN
 70
    0
  9
$DIMDSEP
 70
   46
  9
$DIMATFIT
 70
    3
  9
$DIMFRAC
 70
    0
  9
$DIMLDRBLK
  1

  9
$DIMLUNIT
 70
    2
  9
$DIMLWD
 70
   -2
  9
$DIMLWE
 70
   -2
  9
$DIMTMOVE
 70
    0
  9
$DIMFXL
 40
1
  9
$DIMFXLON
 70
    0
  9
$DIMJOGANG
 40
0.7854
  9
$DIMTFILL
 70
    0
  9
$DIMTFILLCLR
 70
    0
  9
$DIMARCSYM
 70
    0
  9
$DIMLTYPE
  6

  9
$DIMLTEX1
  6

  9
$DIMLTEX2
  6

  9
$LUNITS
 70
    2
  9
$LUPREC
 70
    8
  9
$SKETCHINC
 40
0.1
  9
$FILLETRAD
 40
0.5
  9
$AUNITS
 70
    0
  9
$AUPREC
 70
    0
  9
$MENU
  1
.
  9
$ELEVATION
 40
0
  9
$PELEVATION
 40
0
  9
$THICKNESS
 40
0
  9
$LIMCHECK
 70
    0
  9
$CHAMFERA
 40
0.5
  9
$CHAMFERB
 40
0.5
  9
$CHAMFERC
 40
1
  9
$CHAMFERD
 40
0
  9
$SKPOLY
 70
    0
  9
$USRTIMER
 70
    1
  9
$ANGBASE
 50
0
  9
$ANGDIR
 70
    0
  9
$PDMODE
 70
    2
  9
$PDSIZE
 40
0.05
  9
$PLINEWID
 40
0
  9
$SPLFRAME
 70
    0
  9
$SPLINETYPE
 70
    6
  9
$SPLINESEGS
 70
    8
  9
$HANDSEED
  5
20000
  9
$SURFTAB1
 70
    6
  9
$SURFTAB2
 70
    6
  9
$SURFTYPE
 70
    6
  9
$SURFU
 70
    6
  9
$SURFV
 70
    6
  9
$UCSBASE
  2

  9
$UCSNAME
  2

  9
$UCSORG
 10
0
 20
0
 30
0
  9
$UCSXDIR
 10
1
 20
0
 30
0
  9
$UCSYDIR
 10
0
 20
1
 30
0
  9
$UCSORTHOREF
  2

  9
$UCSORTHOVIEW
 70
    0
  9
$UCSORGTOP
 10
0
 20
0
 30
0
  9
$UCSORGBOTTOM
 10
0
 20
0
 30
0
  9
$UCSORGLEFT
 10
0
 20
0
 30
0
  9
$UCSORGRIGHT
 10
0
 20
0
 30
0
  9
$UCSORGFRONT
 10
0
 20
0
 30
0
  9
$UCSORGBACK
 10
0
 20
0
 30
0
  9
$PUCSBASE
  2

  9
$PUCSNAME
  2

  9
$PUCSORG
 10
0
 20
0
 30
0
  9
$PUCSXDIR
 10
1
 20
0
 30
0
  9
$PUCSYDIR
 10
0
 20
1
 30
0
  9
$PUCSORTHOREF
  2

  9
$PUCSORTHOVIEW
 70
    0
  9
$PUCSORGTOP
 10
0
 20
0
 30
0
  9
$PUCSORGBOTTOM
 10
0
 20
0
 30
0
  9
$PUCSORGLEFT
 10
0
 20
0
 30
0
  9
$PUCSORGRIGHT
 10
0
 20
0
 30
0
  9
$PUCSORGFRONT
 10
0
 20
0
 30
0
  9
$PUCSORGBACK
 10
0
 20
0
 30
0
  9
$USERI1
 70
    0
  9
$USERI2
 70
    0
  9
$USERI3
 70
    0
  9
$USERI4
 70
    0
  9
$USERI5
 70
    0
  9
$USERR1
 40
0
  9
$USERR2
 40
0
  9
$USERR3
 40
0
  9
$USERR4
 40
0
  9
$USERR5
 40
0
  9
$WORLDVIEW
 70
    1
  9
$SHADEDGE
 70
    3
  9
$SHADEDIF
 70
   70
  9
$TILEMODE
 70
    1
  9
$MAXACTVP
 70
   64
  9
$PINSBASE
 10
0
 20
0
 30
0
  9
$PLIMCHECK
 70
    0
  9
$PEXTMIN
 10
1e+20
 20
1e+20
 30
1e+20
  9
$PEXTMAX
 10
-1e+20
 20
-1e+20
 30
-1e+20
  9
$GRIDMODE
 70
    1
  9
$SNAPSTYLE
 70
    0
  9
$PLIMMIN
 10
-20
 20
-7.5
  9
$PLIMMAX
 10
277
 20
202.5
  9
$UNITMODE
 70
    0
  9
$VISRETAIN
 70
    1
  9
$PLINEGEN
 70
    0
  9
$PSLTSCALE
 70
    1
  9
$TREEDEPTH
 70
 3020
  9
$CMLSTYLE
  2
Standard
  9
$CMLJUST
 70
    0
  9
$CMLSCALE
 40
1
  9
$PROXYGRAPHICS
 70
    1
  9
$MEASUREMENT
 70
    0
  9
$CELWEIGHT
370
   -1
  9
$ENDCAPS
280
    0
  9
$JOINSTYLE
280
    0
  9
$LWDISPLAY
290
    0
  9
$INSUNITS
 70
    1
  9
$HYPERLINKBASE
  1

  9
$STYLESHEET
  1

  9
$XEDIT
290
    1
  9
$CEPSNTYPE
380
    0
  9
$PSTYLEMODE
290
    1
  9
$EXTNAMES
290
    1
  9
$PSVPSCALE
 40
0
  9
$OLESTARTUP
290
    0
  9
$SORTENTS
280
  127
  9
$INDEXCTL
280
    0
  9
$HIDETEXT
280
    1
  9
$XCLIPFRAME
290
    0
  9
$HALOGAP
280
    0
  9
$OBSCOLOR
 70
  257
  9
$OBSLTYPE
280
    0
  9
$INTERSECTIONDISPLAY
280
    0
  9
$INTERSECTIONCOLOR
 70
  257
  9
$DIMASSOC
280
    2
  9
$PROJECTNAME
  1

  9
$CAMERADISPLAY
290
    0
  9
$LENSLENGTH
 40
50
  9
$CAMERAHEIGHT
 40
0
  9
$STEPSPERSEC
 40
2
  9
$STEPSIZE
 40
50
  9
$3DDWFPREC
 40
2
  9
$PSOLWIDTH
 40
5
  9
$PSOLHEIGHT
 40
80
  9
$LOFTANG1
 40
1.570796326794897
  9
$LOFTANG2
 40
1.570796326794897
  9
$LOFTMAG1
 40
0
  9
$LOFTMAG2
 40
0
  9
$LOFTPARAM
 70
    7
  9
$LOFTNORMALS
280
    1
  9
$LATITUDE
 40
1
  9
$LONGITUDE
 40
1
  9
$NORTHDIRECTION
 40
0
  9
$TIMEZONE
 70
-8000
  9
$LIGHTGLYPHDISPLAY
280
    1
  9
$TILEMODELIGHTSYNCH
280
    1
  9
$SOLIDHIST
280
    1
  9
$SHOWHIST
280
    1
  9
$DWFFRAME
280
    2
  9
$DGNFRAME
280
    0
  9
$REALWORLDSCALE
290
    1
  9
$INTERFERECOLOR
 62
    1
  9
$CSHADOW
280
    0
  9
$SHADOWPLANELOCATION
 40
0
  0
ENDSEC
  0
SECTION
  2
CLASSES
  0
ENDSEC
  0
SECTION
  2
TABLES
  0
TABLE
  2
VPORT
  5
8
330
0
100
AcDbSymbolTable
 70
    1
  0
VPORT
  5
31
330
2
100
AcDbSymbolTableRecord
100
AcDbViewportTableRecord
  2
*ACTIVE
 70
    0
 10
0
 20
0
 11
1
 21
1
 12
562.0083142515678
 22
107.3799155556703
 13
0
 23
0
 14
10
 24
10
 15
10
 25
10
 16
0
 26
0
 36
1
 17
0
 27
0
 37
0
 40
857.9708675741615
 41
1.839352428393524
 42
50
 43
0
 44
0
 50
0
 51
0
 71
    0
 72
  100
 73
    1
 74
    3
 75
    0
 76
    1
 77
    0
 78
    0
281
    0
 65
    1
110
0
120
0
130
0
111
1
121
0
131
0
112
0
122
1
132
0
 79
    0
146
0
348
10020
 60
    7
 61
    5
292
1
282
    1
141
0
142
0
 63
  250
421
3358443
  0
ENDTAB
  0
TABLE
  2
LTYPE
  5
5
330
0
100
AcDbSymbolTable
 70
    4
  0
LTYPE
  5
14
330
5
100
AcDbSymbolTableRecord
100
AcDbLinetypeTableRecord
  2
ByBlock
 70
    0
  3

 72
   65
 73
    0
 40
0
  0
LTYPE
  5
15
330
5
100
AcDbSymbolTableRecord
100
AcDbLinetypeTableRecord
  2
ByLayer
 70
    0
  3

 72
   65
 73
    0
 40
0
  0
LTYPE
  5
16
330
5
100
AcDbSymbolTableRecord
100
AcDbLinetypeTableRecord
  2
Continuous
 70
    0
  3
Solid line
 72
   65
 73
    0
 40
0
  0
LTYPE
  5
32
330
5
100
AcDbSymbolTableRecord
100
AcDbLinetypeTableRecord
  2
DOT
 70
    0
  3
Dot . . . . . . . . . . . . . . . . . . . . . .
 72
   65
 73
    2
 40
6.35
 49
0
 74
    0
 49
-6.35
 74
    0
  0
LTYPE
  5
33
330
5
100
AcDbSymbolTableRecord
100
AcDbLinetypeTableRecord
  2
DOTTINY
 70
    0
  3
Dot (.15x) .....................................
 72
   65
 73
    2
 40
0.9525
 49
0
 74
    0
 49
-0.9525
 74
    0
  0
LTYPE
  5
34
330
5
100
AcDbSymbolTableRecord
100
AcDbLinetypeTableRecord
  2
DOT2
 70
    0
  3
Dot (.5x) .....................................
 72
   65
 73
    2
 40
3.175
 49
0
 74
    0
 49
-3.175
 74
    0
  0
LTYPE
  5
35
330
5
100
AcDbSymbolTableRecord
100
AcDbLinetypeTableRecord
  2
DOTX2
 70
    0
  3
Dot (2x) .  .  .  .  .  .  .  .  .  .  .  .  .
 72
   65
 73
    2
 40
12.7
 49
0
 74
    0
 49
-12.7
 74
    0
  0
LTYPE
  5
36
330
5
100
AcDbSymbolTableRecord
100
AcDbLinetypeTableRecord
  2
DASHED
 70
    0
  3
Dashed _ _ _ _ _ _ _ _ _ _ _ _ _ _ _ _ _
 72
   65
 73
    2
 40
19.05
 49
12.7
 74
    0
 49
-6.35
 74
    0
  0
LTYPE
  5
37
330
5
100
AcDbSymbolTableRecord
100
AcDbLinetypeTableRecord
  2
DASHEDTINY
 70
    0
  3
Dashed (.15x) _ _ _ _ _ _ _ _ _ _ _ _ _ _ _ _ _
 72
   65
 73
    2
 40
2.8575
 49
1.905
 74
    0
 49
-0.9525
 74
    0
  0
LTYPE
  5
38
330
5
100
AcDbSymbolTableRecord
100
AcDbLinetypeTableRecord
  2
DASHED2
 70
    0
  3
Dashed (.5x) _ _ _ _ _ _ _ _ _ _ _ _ _ _ _ _ _
 72
   65
 73
    2
 40
9.524999999999999
 49
6.35
 74
    0
 49
-3.175
 74
    0
  0
LTYPE
  5
39
330
5
100
AcDbSymbolTableRecord
100
AcDbLinetypeTableRecord
  2
DASHEDX2
 70
    0
  3
Dashed (2x) ____  ____  ____  ____  ____  ___
 72
   65
 73
    2
 40
38.09999999999999
 49
25.4
 74
    0
 49
-12.7
 74
    0
  0
LTYPE
  5
3A
330
5
100
AcDbSymbolTableRecord
100
AcDbLinetypeTableRecord
  2
DASHDOT
 70
    0
  3
Dash dot __ . __ . __ . __ . __ . __ . __ . __
 72
   65
 73
    4
 40
25.4
 49
12.7
 74
    0
 49
-6.35
 74
    0
 49
0
 74
    0
 49
-6.35
 74
    0
  0
LTYPE
  5
3B
330
5
100
AcDbSymbolTableRecord
100
AcDbLinetypeTableRecord
  2
DASHDOTTINY
 70
    0
  3
Dash dot (.15x) _._._._._._._._._._._._._._._.
 72
   65
 73
    4
 40
3.81
 49
1.905
 74
    0
 49
-0.9525
 74
    0
 49
0
 74
    0
 49
-0.9525
 74
    0
  0
LTYPE
  5
3C
330
5
100
AcDbSymbolTableRecord
100
AcDbLinetypeTableRecord
  2
DASHDOT2
 70
    0
  3
Dash dot (.5x) _._._._._._._._._._._._._._._.
 72
   65
 73
    4
 40
12.7
 49
6.35
 74
    0
 49
-3.175
 74
    0
 49
0
 74
    0
 49
-3.175
 74
    0
  0
LTYPE
  5
3D
330
5
100
AcDbSymbolTableRecord
100
AcDbLinetypeTableRecord
  2
DASHDOTX2
 70
    0
  3
Dash dot (2x) ____  .  ____  .  ____  .  ___
 72
   65
 73
    4
 40
50.8
 49
25.4
 74
    0
 49
-12.7
 74
    0
 49
0
 74
    0
 49
-12.7
 74
    0
  0
LTYPE
  5
3E
330
5
100
AcDbSymbolTableRecord
100
AcDbLinetypeTableRecord
  2
DIVIDE
 70
    0
  3
Divide ____ . . ____ . . ____ . . ____ . . ____
 72
   65
 73
    6
 40
31.75
 49
12.7
 74
    0
 49
-6.35
 74
    0
 49
0
 74
    0
 49
-6.35
 74
    0
 49
0
 74
    0
 49
-6.35
 74
    0
  0
LTYPE
  5
3F
330
5
100
AcDbSymbolTableRecord
100
AcDbLinetypeTableRecord
  2
DIVIDETINY
 70
    0
  3
Divide (.15x) __..__..__..__..__..__..__..__.._
 72
   65
 73
    6
 40
4.7625
 49
1.905
 74
    0
 49
-0.9525
 74
    0
 49
0
 74
    0
 49
-0.9525
 74
    0
 49
0
 74
    0
 49
-0.9525
 74
    0
  0
LTYPE
  5
40
330
5
100
AcDbSymbolTableRecord
100
AcDbLinetypeTableRecord
  2
DIVIDE2
 70
    0
  3
Divide (.5x) __..__..__..__..__..__..__..__.._
 72
   65
 73
    6
 40
15.875
 49
6.35
 74
    0
 49
-3.175
 74
    0
 49
0
 74
    0
 49
-3.175
 74
    0
 49
0
 74
    0
 49
-3.175
 74
    0
  0
LTYPE
  5
41
330
5
100
AcDbSymbolTableRecord
100
AcDbLinetypeTableRecord
  2
DIVIDEX2
 70
    0
  3
Divide (2x) ________  .  .  ________  .  .  _
 72
   65
 73
    6
 40
63.5
 49
25.4
 74
    0
 49
-12.7
 74
    0
 49
0
 74
    0
 49
-12.7
 74
    0
 49
0
 74
    0
 49
-12.7
 74
    0
  0
LTYPE
  5
42
330
5
100
AcDbSymbolTableRecord
100
AcDbLinetypeTableRecord
  2
BORDER
 70
    0
  3
Border __ __ . __ __ . __ __ . __ __ . __ __ .
 72
   65
 73
    6
 40
44.45
 49
12.7
 74
    0
 49
-6.35
 74
    0
 49
12.7
 74
    0
 49
-6.35
 74
    0
 49
0
 74
    0
 49
-6.35
 74
    0
  0
LTYPE
  5
43
330
5
100
AcDbSymbolTableRecord
100
AcDbLinetypeTableRecord
  2
BORDERTINY
 70
    0
  3
Border (.15x) __.__.__.__.__.__.__.__.__.__.__.
 72
   65
 73
    6
 40
6.6675
 49
1.905
 74
    0
 49
-0.9525
 74
    0
 49
1.905
 74
    0
 49
-0.9525
 74
    0
 49
0
 74
    0
 49
-0.9525
 74
    0
  0
LTYPE
  5
44
330
5
100
AcDbSymbolTableRecord
100
AcDbLinetypeTableRecord
  2
BORDER2
 70
    0
  3
Border (.5x) __.__.__.__.__.__.__.__.__.__.__.
 72
   65
 73
    6
 40
22.225
 49
6.35
 74
    0
 49
-3.175
 74
    0
 49
6.35
 74
    0
 49
-3.175
 74
    0
 49
0
 74
    0
 49
-3.175
 74
    0
  0
LTYPE
  5
45
330
5
100
AcDbSymbolTableRecord
100
AcDbLinetypeTableRecord
  2
BORDERX2
 70
    0
  3
Border (2x) ____  ____  .  ____  ____  .  ___
 72
   65
 73
    6
 40
88.89999999999999
 49
25.4
 74
    0
 49
-12.7
 74
    0
 49
25.4
 74
    0
 49
-12.7
 74
    0
 49
0
 74
    0
 49
-12.7
 74
    0
  0
LTYPE
  5
46
330
5
100
AcDbSymbolTableRecord
100
AcDbLinetypeTableRecord
  2
CENTER
 70
    0
  3
Center ____ _ ____ _ ____ _ ____ _ ____ _ ____
 72
   65
 73
    4
 40
50.8
 49
31.75
 74
    0
 49
-6.35
 74
    0
 49
6.35
 74
    0
 49
-6.35
 74
    0
  0
LTYPE
  5
47
330
5
100
AcDbSymbolTableRecord
100
AcDbLinetypeTableRecord
  2
CENTERTINY
 70
    0
  3
Center (.15x) ___ _ ___ _ ___ _ ___ _ ___ _ ___
 72
   65
 73
    4
 40
7.619999999999999
 49
4.7625
 74
    0
 49
-0.9525
 74
    0
 49
0.9525
 74
    0
 49
-0.9525
 74
    0
  0
LTYPE
  5
48
330
5
100
AcDbSymbolTableRecord
100
AcDbLinetypeTableRecord
  2
CENTER2
 70
    0
  3
Center (.5x) ___ _ ___ _ ___ _ ___ _ ___ _ ___
 72
   65
 73
    4
 40
28.575
 49
19.05
 74
    0
 49
-3.175
 74
    0
 49
3.175
 74
    0
 49
-3.175
 74
    0
  0
LTYPE
  5
49
330
5
100
AcDbSymbolTableRecord
100
AcDbLinetypeTableRecord
  2
CENTERX2
 70
    0
  3
Center (2x) ________  __  ________  __  _____
 72
   65
 73
    4
 40
101.6
 49
63.5
 74
    0
 49
-12.7
 74
    0
 49
12.7
 74
    0
 49
-12.7
 74
    0
  0
ENDTAB
  0
TABLE
  2
LAYER
  5
2
330
0
100
AcDbSymbolTable
 70
    1
  0
LAYER
  5
10
330
2
100
AcDbSymbolTableRecord
100
AcDbLayerTableRecord
  2
0
 70
    0
 62
    7
  6
CONTINUOUS
370
   -3
390
F
  0
LAYER
  5
4A
330
2
100
AcDbSymbolTableRecord
100
AcDbLayerTableRecord
  2
Defpoints
 70
    0
 62
    7
  6
CONTINUOUS
290
0
370
   -3
390
F
  0
LAYER
  5
4B
330
2
100
AcDbSymbolTableRecord
100
AcDbLayerTableRecord
  2
Unnamed [1]
 70
    0
 62
    5
  6
CONTINUOUS
370
    0
390
F
  0
ENDTAB
  0
TABLE
  2
STYLE
  5
3
330
0
100
AcDbSymbolTable
 70
    3
  0
STYLE
  5
4C
330
2
100
AcDbSymbolTableRecord
100
AcDbTextStyleTableRecord
  2
Standard
 70
    0
 40
0
 41
1
 50
0
 71
    0
 42
1
  3
txt
  4

  0
ENDTAB
  0
TABLE
  2
VIEW
  5
6
330
0
100
AcDbSymbolTable
 70
    0
  0
ENDTAB
  0
TABLE
  2
UCS
  5
7
330
0
100
AcDbSymbolTable
 70
    0
  0
ENDTAB
  0
TABLE
  2
APPID
  5
9
330
0
100
AcDbSymbolTable
 70
    1
  0
APPID
  5
12
330
9
100
AcDbSymbolTableRecord
100
AcDbRegAppTableRecord
  2
ACAD
 70
    0
  0
APPID
  5
4D
330
9
100
AcDbSymbolTableRecord
100
AcDbRegAppTableRecord
  2
LibreCad
 70
    0
  0
ENDTAB
  0
TABLE
  2
DIMSTYLE
  5
A
330
0
100
AcDbSymbolTable
 70
    1
100
AcDbDimStyleTable
 71
    1
  0
DIMSTYLE
105
4E
330
A
100
AcDbSymbolTableRecord
100
AcDbDimStyleTableRecord
  2
Standard
 70
    0
 40
1
 41
2.5
 42
0.0625
 43
0.38
 44
10
 45
0
 46
0
 47
0
 48
0
 49
1
140
5
141
0.09
142
0
143
25.4
144
1
145
0
146
1
147
0.09
148
0
 71
    0
 72
    0
 73
    1
 74
    1
 75
    0
 76
    0
 77
    0
 78
    0
 79
    0
170
    0
171
    2
172
    0
173
    0
174
    0
175
    0
176
    0
177
    0
178
    0
179
    0
271
    4
272
    4
273
    2
274
    2
275
    0
276
    0
277
    2
278
   46
279
    0
280
    0
281
    0
282
    0
283
    1
284
    0
285
    0
286
    0
288
    0
289
    3
340
Standard
341

371
   -2
372
   -2
  0
ENDTAB
  0
TABLE
  2
BLOCK_RECORD
  5
1
330
0
100
AcDbSymbolTable
 70
    2
  0
BLOCK_RECORD
  5
1F
330
1
100
AcDbSymbolTableRecord
100
AcDbBlockTableRecord
  2
*Model_Space
 70
    0
280
    1
281
    0
  0
BLOCK_RECORD
  5
1E
330
1
100
AcDbSymbolTableRecord
100
AcDbBlockTableRecord
  2
*Paper_Space
 70
    0
280
    1
281
    0
  0
BLOCK_RECORD
  5
4F
330
1
100
AcDbSymbolTableRecord
100
AcDbBlockTableRecord
  2
Flat Permastove - both sets 2D final V2
 70
    0
280
    1
281
    0
  0
BLOCK_RECORD
  5
52
330
1
100
AcDbSymbolTableRecord
100
AcDbBlockTableRecord
  2
FP extras
 70
    0
280
    1
281
    0
  0
BLOCK_RECORD
  5
55
330
1
100
AcDbSymbolTableRecord
100
AcDbBlockTableRecord
  2
James
 70
    0
280
    1
281
    0
  0
BLOCK_RECORD
  5
58
330
1
100
AcDbSymbolTableRecord
100
AcDbBlockTableRecord
  2
FP extras-0
 70
    0
280
    1
281
    0
  0
BLOCK_RECORD
  5
5B
330
1
100
AcDbSymbolTableRecord
100
AcDbBlockTableRecord
  2
Cross piece
 70
    0
280
    1
281
    0
  0
BLOCK_RECORD
  5
5E
330
1
100
AcDbSymbolTableRecord
100
AcDbBlockTableRecord
  2
Cross piece-0
 70
    0
280
    1
281
    0
  0
BLOCK_RECORD
  5
61
330
1
100
AcDbSymbolTableRecord
100
AcDbBlockTableRecord
  2
Cross piece-1
 70
    0
280
    1
281
    0
  0
BLOCK_RECORD
  5
64
330
1
100
AcDbSymbolTableRecord
100
AcDbBlockTableRecord
  2
Cross piece-2
 70
    0
280
    1
281
    0
  0
BLOCK_RECORD
  5
67
330
1
100
AcDbSymbolTableRecord
100
AcDbBlockTableRecord
  2
Cross piece-3
 70
    0
280
    1
281
    0
  0
ENDTAB
  0
ENDSEC
  0
SECTION
  2
BLOCKS
  0
BLOCK
  5
20
330
1F
100
AcDbEntity
  8
0
100
AcDbBlockBegin
  2
*Model_Space
 70
    0
 10
0
 20
0
 30
0
  3
*Model_Space
  1

  0
ENDBLK
  5
21
330
1F
100
AcDbEntity
  8
0
100
AcDbBlockEnd
  0
BLOCK
  5
1C
330
1B
100
AcDbEntity
  8
0
100
AcDbBlockBegin
  2
*Paper_Space
 70
    0
 10
0
 20
0
 30
0
  3
*Paper_Space
  1

  0
ENDBLK
  5
1D
330
1F
100
AcDbEntity
  8
0
100
AcDbBlockEnd
  0
BLOCK
  5
50
330
4F
100
AcDbEntity
  8
0
100
AcDbBlockBegin
  2
Flat Permastove - both sets 2D final V2
 70
    0
 10
0
 20
0
  3
Flat Permastove - both sets 2D final V2
  1

  0
LINE
  5
6A
100
AcDbEntity
  8
Unnamed [1]
  6
CONTINUOUS
 62
    3
370
    0
100
AcDbLine
 10
61.14666748046875
 20
-235.0132656097412
 11
181.1466674804688
 21
-235.0132656097412
  0
LINE
  5
6B
100
AcDbEntity
  8
Unnamed [1]
  6
CONTINUOUS
 62
    3
370
    0
100
AcDbLine
 10
16.14666748046875
 20
-242.0132656097412
 11
16.14666748046875
 21
-250.0132656097412
  0
LINE
  5
6C
100
AcDbEntity
  8
Unnamed [1]
  6
CONTINUOUS
 62
    3
370
    0
100
AcDbLine
 10
13.64666748046875
 20
-242.0132656097412
 11
13.64666748046875
 21
-250.0132656097412
  0
LINE
  5
6D
100
AcDbEntity
  8
Unnamed [1]
  6
CONTINUOUS
 62
    3
370
    0
100
AcDbLine
 10
3.64666748046875
 20
-242.0132656097412
 11
3.64666748046875
 21
-250.0132656097412
  0
LINE
  5
6E
100
AcDbEntity
  8
Unnamed [1]
  6
CONTINUOUS
 62
    3
370
    0
100
AcDbLine
 10
-198.8533325195312
 20
-275.0132656097412
 11
-128.8533325195312
 21
-275.0132656097412
  0
LINE
  5
6F
100
AcDbEntity
  8
Unnamed [1]
  6
CONTINUOUS
 62
    3
370
    0
100
AcDbLine
 10
-198.8533325195312
 20
-275.0132656097412
 11
-198.8533325195312
 21
-265.0132656097412
  0
LINE
  5
70
100
AcDbEntity
  8
Unnamed [1]
  6
CONTINUOUS
 62
    3
370
    0
100
AcDbLine
 10
-218.8533325195312
 20
-265.0132656097412
 11
-198.8533325195312
 21
-265.0132656097412
  0
LINE
  5
71
100
AcDbEntity
  8
Unnamed [1]
  6
CONTINUOUS
 62
    3
370
    0
100
AcDbLine
 10
-287.8580120849609
 20
-239.0117803955078
 11
-129.8580120849609
 21
-239.0117803955078
  0
LINE
  5
72
100
AcDbEntity
  8
Unnamed [1]
  6
CONTINUOUS
 62
    3
370
    0
100
AcDbLine
 10
-308.8533325195312
 20
-250.0132656097412
 11
-308.8533325195312
 21
-70.01326560974124
  0
LINE
  5
73
100
AcDbEntity
  8
Unnamed [1]
  6
CONTINUOUS
 62
    3
370
    0
100
AcDbLine
 10
-488.8533325195312
 20
-250.0132656097412
 11
-308.8533325195313
 21
-250.0132656097412
  0
LINE
  5
74
100
AcDbEntity
  8
Unnamed [1]
  6
CONTINUOUS
 62
    3
370
    0
100
AcDbLine
 10
-335.3533325195312
 20
-223.5132656097412
 11
-335.3533325195312
 21
-96.51326560974121
  0
LINE
  5
75
100
AcDbEntity
  8
Unnamed [1]
  6
CONTINUOUS
 62
    3
370
    0
100
AcDbLine
 10
-462.3533325195312
 20
-223.5132656097412
 11
-335.3533325195312
 21
-223.5132656097412
  0
LINE
  5
76
100
AcDbEntity
  8
Unnamed [1]
  6
CONTINUOUS
 62
    3
370
    0
100
AcDbLine
 10
-288.8533325195312
 20
-305.0132656097412
 11
-288.8533325195312
 21
-275.0132656097412
  0
LINE
  5
77
100
AcDbEntity
  8
Unnamed [1]
  6
CONTINUOUS
 62
    3
370
    0
100
AcDbLine
 10
-288.8533325195312
 20
-275.0132656097412
 11
-218.8533325195312
 21
-275.0132656097412
  0
LINE
  5
78
100
AcDbEntity
  8
Unnamed [1]
  6
CONTINUOUS
 62
    3
370
    0
100
AcDbLine
 10
-218.8533325195312
 20
-275.0132656097412
 11
-218.8533325195312
 21
-265.0132656097412
  0
LINE
  5
79
100
AcDbEntity
  8
Unnamed [1]
  6
CONTINUOUS
 62
    3
370
    0
100
AcDbLine
 10
-88.85333251953125
 20
-235.0132656097412
 11
31.14666748046875
 21
-235.0132656097412
  0
LINE
  5
7A
100
AcDbEntity
  8
Unnamed [1]
  6
CONTINUOUS
 62
    3
370
    0
100
AcDbLine
 10
-265.3580120849609
 20
-224.0117803955078
 11
-213.8580120849609
 21
-224.0117803955078
  0
LINE
  5
7B
100
AcDbEntity
  8
Unnamed [1]
  6
CONTINUOUS
 62
    3
370
    0
100
AcDbLine
 10
-282.8580120849609
 20
-155.0117803955078
 11
-282.8580120849609
 21
-103.5117803955078
  0
LINE
  5
7C
100
AcDbEntity
  8
Unnamed [1]
  6
CONTINUOUS
 62
    3
370
    0
100
AcDbLine
 10
-134.8580120849609
 20
-155.0117803955078
 11
-134.8580120849609
 21
-103.5117803955078
  0
LINE
  5
7D
100
AcDbEntity
  8
Unnamed [1]
  6
CONTINUOUS
 62
    3
370
    0
100
AcDbLine
 10
-265.3580120849609
 20
-86.0117803955078
 11
-213.8580120849609
 21
-86.0117803955078
  0
LINE
  5
7E
100
AcDbEntity
  8
Unnamed [1]
  6
CONTINUOUS
 62
    3
370
    0
100
AcDbLine
 10
-265.3580120849609
 20
-234.0117803955078
 11
-213.8580120849609
 21
-234.0117803955078
  0
LINE
  5
7F
100
AcDbEntity
  8
Unnamed [1]
  6
CONTINUOUS
 62
    3
370
    0
100
AcDbLine
 10
-272.8580120849609
 20
-155.0117803955078
 11
-272.8580120849609
 21
-103.5117803955078
  0
LINE
  5
80
100
AcDbEntity
  8
Unnamed [1]
  6
CONTINUOUS
 62
    3
370
    0
100
AcDbLine
 10
-265.3580120849609
 20
-96.0117803955078
 11
-213.8580120849609
 21
-96.0117803955078
  0
LINE
  5
81
100
AcDbEntity
  8
Unnamed [1]
  6
CONTINUOUS
 62
    3
370
    0
100
AcDbLine
 10
-144.8580120849609
 20
-216.5117803955078
 11
-144.8580120849609
 21
-165.0117803955078
  0
LINE
  5
82
100
AcDbEntity
  8
Unnamed [1]
  6
CONTINUOUS
 62
    3
370
    0
100
AcDbLine
 10
-282.8580120849609
 20
-155.0117803955078
 11
-272.8580120849609
 21
-155.0117803955078
  0
LINE
  5
83
100
AcDbEntity
  8
Unnamed [1]
  6
CONTINUOUS
 62
    3
370
    0
100
AcDbLine
 10
-144.8580120849609
 20
-165.0117803955078
 11
-134.8580120849609
 21
-165.0117803955078
  0
LINE
  5
84
100
AcDbEntity
  8
Unnamed [1]
  6
CONTINUOUS
 62
    3
370
    0
100
AcDbLine
 10
-203.8580120849609
 20
-96.0117803955078
 11
-203.8580120849609
 21
-86.0117803955078
  0
LINE
  5
85
100
AcDbEntity
  8
Unnamed [1]
  6
CONTINUOUS
 62
    3
370
    0
100
AcDbLine
 10
-213.8580120849609
 20
-234.0117803955078
 11
-213.8580120849609
 21
-224.0117803955078
  0
LINE
  5
86
100
AcDbEntity
  8
Unnamed [1]
  6
CONTINUOUS
 62
    3
370
    0
100
AcDbLine
 10
-272.8580120849609
 20
-216.5117803955078
 11
-272.8580120849609
 21
-165.0117803955078
  0
LINE
  5
87
100
AcDbEntity
  8
Unnamed [1]
  6
CONTINUOUS
 62
    3
370
    0
100
AcDbLine
 10
-144.8580120849609
 20
-155.0117803955078
 11
-134.8580120849609
 21
-155.0117803955078
  0
LINE
  5
88
100
AcDbEntity
  8
Unnamed [1]
  6
CONTINUOUS
 62
    3
370
    0
100
AcDbLine
 10
-282.8580120849609
 20
-165.0117803955078
 11
-272.8580120849609
 21
-165.0117803955078
  0
LINE
  5
89
100
AcDbEntity
  8
Unnamed [1]
  6
CONTINUOUS
 62
    3
370
    0
100
AcDbLine
 10
-144.8580120849609
 20
-155.0117803955078
 11
-144.8580120849609
 21
-103.5117803955078
  0
LINE
  5
8A
100
AcDbEntity
  8
Unnamed [1]
  6
CONTINUOUS
 62
    3
370
    0
100
AcDbLine
 10
-134.8580120849609
 20
-216.5117803955078
 11
-134.8580120849609
 21
-165.0117803955078
  0
LINE
  5
8B
100
AcDbEntity
  8
Unnamed [1]
  6
CONTINUOUS
 62
    3
370
    0
100
AcDbLine
 10
-203.8580120849609
 20
-234.0117803955078
 11
-203.8580120849609
 21
-224.0117803955078
  0
LINE
  5
8C
100
AcDbEntity
  8
Unnamed [1]
  6
CONTINUOUS
 62
    3
370
    0
100
AcDbLine
 10
-213.8580120849609
 20
-96.0117803955078
 11
-213.8580120849609
 21
-86.0117803955078
  0
LINE
  5
8D
100
AcDbEntity
  8
Unnamed [1]
  6
CONTINUOUS
 62
    3
370
    0
100
AcDbLine
 10
-203.8580120849609
 20
-96.0117803955078
 11
-152.3580120849609
 21
-96.0117803955078
  0
LINE
  5
8E
100
AcDbEntity
  8
Unnamed [1]
  6
CONTINUOUS
 62
    3
370
    0
100
AcDbLine
 10
-203.8580120849609
 20
-224.0117803955078
 11
-152.3580120849609
 21
-224.0117803955078
  0
LINE
  5
8F
100
AcDbEntity
  8
Unnamed [1]
  6
CONTINUOUS
 62
    3
370
    0
100
AcDbLine
 10
-203.8580120849609
 20
-234.0117803955078
 11
-152.3580120849609
 21
-234.0117803955078
  0
LINE
  5
90
100
AcDbEntity
  8
Unnamed [1]
  6
CONTINUOUS
 62
    3
370
    0
100
AcDbLine
 10
-282.8580120849609
 20
-216.5117803955078
 11
-282.8580120849609
 21
-165.0117803955078
  0
LINE
  5
91
100
AcDbEntity
  8
Unnamed [1]
  6
CONTINUOUS
 62
    3
370
    0
100
AcDbLine
 10
-129.8580120849609
 20
-239.0117803955078
 11
-129.8580120849609
 21
-81.0117803955078
  0
LINE
  5
92
100
AcDbEntity
  8
Unnamed [1]
  6
CONTINUOUS
 62
    3
370
    0
100
AcDbLine
 10
-203.8580120849609
 20
-86.0117803955078
 11
-152.3580120849609
 21
-86.0117803955078
  0
LINE
  5
93
100
AcDbEntity
  8
Unnamed [1]
  6
CONTINUOUS
 62
    3
370
    0
100
AcDbLine
 10
-287.8580120849609
 20
-239.0117803955078
 11
-287.8580120849609
 21
-81.0117803955078
  0
LINE
  5
94
100
AcDbEntity
  8
Unnamed [1]
  6
CONTINUOUS
 62
    3
370
    0
100
AcDbLine
 10
-287.8580120849609
 20
-81.0117803955078
 11
-129.8580120849609
 21
-81.0117803955078
  0
LINE
  5
95
100
AcDbEntity
  8
Unnamed [1]
  6
CONTINUOUS
 62
    3
370
    0
100
AcDbLine
 10
-291.4533325195313
 20
-395.0132656097412
 11
-292.1125077934865
 21
-376.1369555069231
  0
LINE
  5
96
100
AcDbEntity
  8
Unnamed [1]
  6
CONTINUOUS
 62
    3
370
    0
100
AcDbLine
 10
-288.8533325195312
 20
-395.0132656097412
 11
-288.8533325195312
 21
-325.0132656097412
  0
LINE
  5
97
100
AcDbEntity
  8
Unnamed [1]
  6
CONTINUOUS
 62
    3
370
    0
100
AcDbLine
 10
-462.3533325195312
 20
-96.51326560974121
 11
-335.3533325195312
 21
-96.51326560974121
  0
LINE
  5
98
100
AcDbEntity
  8
Unnamed [1]
  6
CONTINUOUS
 62
    3
370
    0
100
AcDbLine
 10
-387.8533325195312
 20
-80.46326560974121
 11
-387.8533325195312
 21
-76.96326560974121
  0
LINE
  5
99
100
AcDbEntity
  8
Unnamed [1]
  6
CONTINUOUS
 62
    3
370
    0
100
AcDbLine
 10
-488.8533325195312
 20
-70.01326560974121
 11
-308.8533325195313
 21
-70.01326560974121
  0
LINE
  5
9A
100
AcDbEntity
  8
Unnamed [1]
  6
CONTINUOUS
 62
    3
370
    0
100
AcDbLine
 10
-409.8533325195312
 20
-80.46326560974121
 11
-409.8533325195312
 21
-76.96326560974121
  0
LINE
  5
9B
100
AcDbEntity
  8
Unnamed [1]
  6
CONTINUOUS
 62
    3
370
    0
100
AcDbLine
 10
-118.8533325195312
 20
-288.0132656097412
 11
-118.8533325195312
 21
-322.0132656097412
  0
LINE
  5
9C
100
AcDbEntity
  8
Unnamed [1]
  6
CONTINUOUS
 62
    3
370
    0
100
AcDbLine
 10
-858.8533325195312
 20
-285.0132656097412
 11
-858.8533325195312
 21
-275.0132656097412
  0
LINE
  5
9D
100
AcDbEntity
  8
Unnamed [1]
  6
CONTINUOUS
 62
    3
370
    0
100
AcDbLine
 10
-865.8533325195312
 20
-285.0132656097412
 11
-858.8533325195312
 21
-285.0132656097412
  0
LINE
  5
9E
100
AcDbEntity
  8
Unnamed [1]
  6
CONTINUOUS
 62
    3
370
    0
100
AcDbLine
 10
-858.8533325195312
 20
-475.0132656097412
 11
-698.8533325195312
 21
-475.0132656097412
  0
LINE
  5
9F
100
AcDbEntity
  8
Unnamed [1]
  6
CONTINUOUS
 62
    3
370
    0
100
AcDbLine
 10
-858.3994067382813
 20
-160.0103798675537
 11
-858.3994067382813
 21
-138.0103798675537
  0
LINE
  5
A0
100
AcDbEntity
  8
Unnamed [1]
  6
CONTINUOUS
 62
    3
370
    0
100
AcDbLine
 10
-868.8494067382812
 20
-239.0103798675537
 11
-688.8494067382812
 21
-239.0103798675537
  0
LINE
  5
A1
100
AcDbEntity
  8
Unnamed [1]
  6
CONTINUOUS
 62
    3
370
    0
100
AcDbLine
 10
-868.8494067382812
 20
-239.0103798675537
 11
-868.8494067382812
 21
-59.01037986755372
  0
LINE
  5
A2
100
AcDbEntity
  8
Unnamed [1]
  6
CONTINUOUS
 62
    3
370
    0
100
AcDbLine
 10
-387.8533325195312
 20
-243.0632656097412
 11
-387.8533325195312
 21
-239.5632656097412
  0
LINE
  5
A3
100
AcDbEntity
  8
Unnamed [1]
  6
CONTINUOUS
 62
    3
370
    0
100
AcDbLine
 10
-462.3533325195312
 20
-223.5132656097412
 11
-462.3533325195312
 21
-96.51326560974121
  0
LINE
  5
A4
100
AcDbEntity
  8
Unnamed [1]
  6
CONTINUOUS
 62
    3
370
    0
100
AcDbLine
 10
-409.8533325195312
 20
-76.96326560974121
 11
-387.8533325195312
 21
-76.96326560974121
  0
LINE
  5
A5
100
AcDbEntity
  8
Unnamed [1]
  6
CONTINUOUS
 62
    3
370
    0
100
AcDbLine
 10
-409.8533325195312
 20
-80.46326560974121
 11
-387.8533325195312
 21
-80.46326560974121
  0
LINE
  5
A6
100
AcDbEntity
  8
Unnamed [1]
  6
CONTINUOUS
 62
    3
370
    0
100
AcDbLine
 10
-319.3033325195312
 20
-149.0132656097412
 11
-315.8033325195313
 21
-149.0132656097412
  0
LINE
  5
A7
100
AcDbEntity
  8
Unnamed [1]
  6
CONTINUOUS
 62
    3
370
    0
100
AcDbLine
 10
-315.8033325195313
 20
-171.0132656097412
 11
-315.8033325195313
 21
-149.0132656097412
  0
LINE
  5
A8
100
AcDbEntity
  8
Unnamed [1]
  6
CONTINUOUS
 62
    3
370
    0
100
AcDbLine
 10
-319.3033325195312
 20
-171.0132656097412
 11
-315.8033325195313
 21
-171.0132656097412
  0
LINE
  5
A9
100
AcDbEntity
  8
Unnamed [1]
  6
CONTINUOUS
 62
    3
370
    0
100
AcDbLine
 10
-319.3033325195312
 20
-171.0132656097412
 11
-319.3033325195312
 21
-149.0132656097412
  0
LINE
  5
AA
100
AcDbEntity
  8
Unnamed [1]
  6
CONTINUOUS
 62
    3
370
    0
100
AcDbLine
 10
-481.9033325195313
 20
-171.0132656097412
 11
-481.9033325195313
 21
-149.0132656097412
  0
LINE
  5
AB
100
AcDbEntity
  8
Unnamed [1]
  6
CONTINUOUS
 62
    3
370
    0
100
AcDbLine
 10
-481.9033325195313
 20
-171.0132656097412
 11
-478.4033325195313
 21
-171.0132656097412
  0
LINE
  5
AC
100
AcDbEntity
  8
Unnamed [1]
  6
CONTINUOUS
 62
    3
370
    0
100
AcDbLine
 10
-478.4033325195313
 20
-171.0132656097412
 11
-478.4033325195313
 21
-149.0132656097412
  0
LINE
  5
AD
100
AcDbEntity
  8
Unnamed [1]
  6
CONTINUOUS
 62
    3
370
    0
100
AcDbLine
 10
-481.9033325195313
 20
-149.0132656097412
 11
-478.4033325195313
 21
-149.0132656097412
  0
LINE
  5
AE
100
AcDbEntity
  8
Unnamed [1]
  6
CONTINUOUS
 62
    3
370
    0
100
AcDbLine
 10
-409.8533325195312
 20
-243.0632656097412
 11
-409.8533325195312
 21
-239.5632656097412
  0
LINE
  5
AF
100
AcDbEntity
  8
Unnamed [1]
  6
CONTINUOUS
 62
    3
370
    0
100
AcDbLine
 10
-488.8533325195312
 20
-250.0132656097412
 11
-488.8533325195312
 21
-70.01326560974124
  0
LINE
  5
B0
100
AcDbEntity
  8
Unnamed [1]
  6
CONTINUOUS
 62
    3
370
    0
100
AcDbLine
 10
-409.8533325195312
 20
-239.5632656097412
 11
-387.8533325195312
 21
-239.5632656097412
  0
LINE
  5
B1
100
AcDbEntity
  8
Unnamed [1]
  6
CONTINUOUS
 62
    3
370
    0
100
AcDbLine
 10
-409.8533325195312
 20
-243.0632656097412
 11
-387.8533325195312
 21
-243.0632656097412
  0
LINE
  5
B2
100
AcDbEntity
  8
Unnamed [1]
  6
CONTINUOUS
 62
    3
370
    0
100
AcDbLine
 10
-667.8533325195312
 20
-239.0132656097412
 11
-509.8533325195312
 21
-239.0132656097412
  0
LINE
  5
B3
100
AcDbEntity
  8
Unnamed [1]
  6
CONTINUOUS
 62
    3
370
    0
100
AcDbLine
 10
-688.8494067382812
 20
-239.0103798675537
 11
-688.8494067382812
 21
-59.01037986755372
  0
LINE
  5
B4
100
AcDbEntity
  8
Unnamed [1]
  6
CONTINUOUS
 62
    3
370
    0
100
AcDbLine
 10
-667.8533325195312
 20
-81.01326560974121
 11
-509.8533325195312
 21
-81.01326560974121
  0
LINE
  5
B5
100
AcDbEntity
  8
Unnamed [1]
  6
CONTINUOUS
 62
    3
370
    0
100
AcDbLine
 10
-868.8494067382812
 20
-59.01037986755372
 11
-688.8494067382812
 21
-59.01037986755372
  0
LINE
  5
B6
100
AcDbEntity
  8
Unnamed [1]
  6
CONTINUOUS
 62
    3
370
    0
100
AcDbLine
 10
-688.8494067382812
 20
-164.0103798675537
 11
-688.8494067382812
 21
-94.01037986755372
  0
LINE
  5
B7
100
AcDbEntity
  8
Unnamed [1]
  6
CONTINUOUS
 62
    3
370
    0
100
AcDbLine
 10
-789.8494067382812
 20
-232.0603798675537
 11
-789.8494067382812
 21
-228.5603798675537
  0
LINE
  5
B8
100
AcDbEntity
  8
Unnamed [1]
  6
CONTINUOUS
 62
    3
370
    0
100
AcDbLine
 10
-767.8494067382812
 20
-232.0603798675537
 11
-767.8494067382812
 21
-228.5603798675537
  0
LINE
  5
B9
100
AcDbEntity
  8
Unnamed [1]
  6
CONTINUOUS
 62
    3
370
    0
100
AcDbLine
 10
-789.8494067382812
 20
-232.0603798675537
 11
-767.8494067382812
 21
-232.0603798675537
  0
LINE
  5
BA
100
AcDbEntity
  8
Unnamed [1]
  6
CONTINUOUS
 62
    3
370
    0
100
AcDbLine
 10
-640.6680607867634
 20
-86.27993225774119
 11
-610.7977769695312
 21
-86.27993225774119
  0
LINE
  5
BB
100
AcDbEntity
  8
Unnamed [1]
  6
CONTINUOUS
 62
    3
370
    0
100
AcDbLine
 10
-789.8494067382812
 20
-228.5603798675537
 11
-767.8494067382812
 21
-228.5603798675537
  0
LINE
  5
BC
100
AcDbEntity
  8
Unnamed [1]
  6
CONTINUOUS
 62
    3
370
    0
100
AcDbLine
 10
-861.8994067382813
 20
-160.0103798675537
 11
-858.3994067382813
 21
-160.0103798675537
  0
LINE
  5
BD
100
AcDbEntity
  8
Unnamed [1]
  6
CONTINUOUS
 62
    3
370
    0
100
AcDbLine
 10
-789.8494067382812
 20
-65.96037986755371
 11
-767.8494067382812
 21
-65.96037986755371
  0
LINE
  5
BE
100
AcDbEntity
  8
Unnamed [1]
  6
CONTINUOUS
 62
    3
370
    0
100
AcDbLine
 10
-688.8494067382812
 20
-74.01037986755372
 11
-688.8494067382812
 21
-64.01037986755372
  0
LINE
  5
BF
100
AcDbEntity
  8
Unnamed [1]
  6
CONTINUOUS
 62
    3
370
    0
100
AcDbLine
 10
-688.8494067382812
 20
-74.01037986755372
 11
-688.8494067382812
 21
-64.01037986755372
  0
LINE
  5
C0
100
AcDbEntity
  8
Unnamed [1]
  6
CONTINUOUS
 62
    3
370
    0
100
AcDbLine
 10
-699.2994067382812
 20
-160.0103798675537
 11
-695.7994067382813
 21
-160.0103798675537
  0
LINE
  5
C1
100
AcDbEntity
  8
Unnamed [1]
  6
CONTINUOUS
 62
    3
370
    0
100
AcDbLine
 10
-789.8494067382812
 20
-69.46037986755371
 11
-767.8494067382812
 21
-69.46037986755371
  0
LINE
  5
C2
100
AcDbEntity
  8
Unnamed [1]
  6
CONTINUOUS
 62
    3
370
    0
100
AcDbLine
 10
-767.8494067382812
 20
-69.46037986755371
 11
-767.8494067382812
 21
-65.96037986755371
  0
LINE
  5
C3
100
AcDbEntity
  8
Unnamed [1]
  6
CONTINUOUS
 62
    3
370
    0
100
AcDbLine
 10
-695.7994067382813
 20
-160.0103798675537
 11
-695.7994067382813
 21
-138.0103798675537
  0
LINE
  5
C4
100
AcDbEntity
  8
Unnamed [1]
  6
CONTINUOUS
 62
    3
370
    0
100
AcDbLine
 10
-699.2994067382812
 20
-138.0103798675537
 11
-695.7994067382813
 21
-138.0103798675537
  0
LINE
  5
C5
100
AcDbEntity
  8
Unnamed [1]
  6
CONTINUOUS
 62
    3
370
    0
100
AcDbLine
 10
-861.8994067382813
 20
-160.0103798675537
 11
-861.8994067382813
 21
-138.0103798675537
  0
LINE
  5
C6
100
AcDbEntity
  8
Unnamed [1]
  6
CONTINUOUS
 62
    3
370
    0
100
AcDbLine
 10
-789.8494067382812
 20
-69.46037986755371
 11
-789.8494067382812
 21
-65.96037986755371
  0
LINE
  5
C7
100
AcDbEntity
  8
Unnamed [1]
  6
CONTINUOUS
 62
    3
370
    0
100
AcDbLine
 10
-699.2994067382812
 20
-160.0103798675537
 11
-699.2994067382812
 21
-138.0103798675537
  0
LINE
  5
C8
100
AcDbEntity
  8
Unnamed [1]
  6
CONTINUOUS
 62
    3
370
    0
100
AcDbLine
 10
-861.8994067382813
 20
-138.0103798675537
 11
-858.3994067382813
 21
-138.0103798675537
  0
LINE
  5
C9
100
AcDbEntity
  8
Unnamed [1]
  6
CONTINUOUS
 62
    3
370
    0
100
AcDbLine
 10
-688.8494067382812
 20
-144.0103798675537
 11
-688.8494067382812
 21
-94.01037986755372
  0
LINE
  5
CA
100
AcDbEntity
  8
Unnamed [1]
  6
CONTINUOUS
 62
    3
370
    0
100
AcDbLine
 10
-566.9088880695313
 20
-86.27993225774119
 11
-537.0386042522991
 21
-86.27993225774119
  0
LINE
  5
CB
100
AcDbEntity
  8
Unnamed [1]
  6
CONTINUOUS
 62
    3
370
    0
100
AcDbLine
 10
-640.6680607867634
 20
-233.7465989617413
 11
-610.7977769695312
 21
-233.7465989617413
  0
LINE
  5
CC
100
AcDbEntity
  8
Unnamed [1]
  6
CONTINUOUS
 62
    3
370
    0
100
AcDbLine
 10
-662.5866658715313
 20
-211.8279938769733
 11
-662.5866658715313
 21
-181.9577100597412
  0
LINE
  5
CD
100
AcDbEntity
  8
Unnamed [1]
  6
CONTINUOUS
 62
    3
370
    0
100
AcDbLine
 10
-515.1199991675312
 20
-211.8279938769733
 11
-515.1199991675312
 21
-181.9577100597412
  0
LINE
  5
CE
100
AcDbEntity
  8
Unnamed [1]
  6
CONTINUOUS
 62
    3
370
    0
100
AcDbLine
 10
-566.9088880695313
 20
-233.7465989617413
 11
-537.038604252299
 21
-233.7465989617413
  0
LINE
  5
CF
100
AcDbEntity
  8
Unnamed [1]
  6
CONTINUOUS
 62
    3
370
    0
100
AcDbLine
 10
-538.2258556530048
 20
-114.351249696804
 11
-527.1076823451206
 21
-103.2330763889197
  0
LINE
  5
D0
100
AcDbEntity
  8
Unnamed [1]
  6
CONTINUOUS
 62
    3
370
    0
100
AcDbLine
 10
-543.1913166065941
 20
-109.3857887432148
 11
-532.0731432987097
 21
-98.26761543533047
  0
LINE
  5
D1
100
AcDbEntity
  8
Unnamed [1]
  6
CONTINUOUS
 62
    3
370
    0
100
AcDbLine
 10
-523.0186949339118
 20
-145.0910433837412
 11
-522.1422213915312
 21
-145.0910433837412
  0
LINE
  5
D2
100
AcDbEntity
  8
Unnamed [1]
  6
CONTINUOUS
 62
    3
370
    0
100
AcDbLine
 10
-523.0186949339118
 20
-174.9354878357412
 11
-522.1422213915312
 21
-174.9354878357412
  0
LINE
  5
D3
100
AcDbEntity
  8
Unnamed [1]
  6
CONTINUOUS
 62
    3
370
    0
100
AcDbLine
 10
-543.1913166065942
 20
-210.6407424762676
 11
-532.0731432987097
 21
-221.758915784152
  0
LINE
  5
D4
100
AcDbEntity
  8
Unnamed [1]
  6
CONTINUOUS
 62
    3
370
    0
100
AcDbLine
 10
-655.5644436475313
 20
-174.9354878357412
 11
-654.687970105151
 21
-174.9354878357412
  0
LINE
  5
D5
100
AcDbEntity
  8
Unnamed [1]
  6
CONTINUOUS
 62
    3
370
    0
100
AcDbLine
 10
-634.5153484324685
 20
-210.6407424762678
 11
-645.6335217403525
 21
-221.7589157841519
  0
LINE
  5
D6
100
AcDbEntity
  8
Unnamed [1]
  6
CONTINUOUS
 62
    3
370
    0
100
AcDbLine
 10
-639.4808093860578
 20
-205.6752815226785
 11
-650.5989826939419
 21
-216.7934548305626
  0
LINE
  5
D7
100
AcDbEntity
  8
Unnamed [1]
  6
CONTINUOUS
 62
    3
370
    0
100
AcDbLine
 10
-667.8533325195312
 20
-239.0132656097412
 11
-667.8533325195312
 21
-81.01326560974121
  0
LINE
  5
D8
100
AcDbEntity
  8
Unnamed [1]
  6
CONTINUOUS
 62
    3
370
    0
100
AcDbLine
 10
-662.5866658715313
 20
-138.0688211597412
 11
-662.5866658715313
 21
-108.1985373425091
  0
LINE
  5
D9
100
AcDbEntity
  8
Unnamed [1]
  6
CONTINUOUS
 62
    3
370
    0
100
AcDbLine
 10
-655.5644436475313
 20
-145.0910433837412
 11
-654.687970105151
 21
-145.0910433837412
  0
LINE
  5
DA
100
AcDbEntity
  8
Unnamed [1]
  6
CONTINUOUS
 62
    3
370
    0
100
AcDbLine
 10
-650.5989826939419
 20
-103.2330763889198
 11
-639.4808093860578
 21
-114.3512496968039
  0
LINE
  5
DB
100
AcDbEntity
  8
Unnamed [1]
  6
CONTINUOUS
 62
    3
370
    0
100
AcDbLine
 10
-645.6335217403528
 20
-98.26761543533047
 11
-634.5153484324685
 21
-109.3857887432147
  0
LINE
  5
DC
100
AcDbEntity
  8
Unnamed [1]
  6
CONTINUOUS
 62
    3
370
    0
100
AcDbLine
 10
-538.2258556530048
 20
-205.6752815226784
 11
-527.1076823451206
 21
-216.7934548305627
  0
LINE
  5
DD
100
AcDbEntity
  8
Unnamed [1]
  6
CONTINUOUS
 62
    3
370
    0
100
AcDbLine
 10
-515.1199991675312
 20
-138.0688211597412
 11
-515.1199991675312
 21
-108.198537342509
  0
LINE
  5
DE
100
AcDbEntity
  8
Unnamed [1]
  6
CONTINUOUS
 62
    3
370
    0
100
AcDbLine
 10
-509.8533325195312
 20
-239.0132656097412
 11
-509.8533325195312
 21
-81.01326560974121
  0
LINE
  5
DF
100
AcDbEntity
  8
Unnamed [1]
  6
CONTINUOUS
 62
    3
370
    0
100
AcDbLine
 10
-768.8533325195312
 20
-275.0132656097412
 11
-698.8533325195312
 21
-275.0132656097412
  0
LINE
  5
E0
100
AcDbEntity
  8
Unnamed [1]
  6
CONTINUOUS
 62
    3
370
    0
100
AcDbLine
 10
-788.8533325195312
 20
-265.0132656097412
 11
-768.8533325195312
 21
-265.0132656097412
  0
LINE
  5
E1
100
AcDbEntity
  8
Unnamed [1]
  6
CONTINUOUS
 62
    3
370
    0
100
AcDbLine
 10
-388.8533325195312
 20
-275.0132656097412
 11
-318.8533325195312
 21
-275.0132656097412
  0
LINE
  5
E2
100
AcDbEntity
  8
Unnamed [1]
  6
CONTINUOUS
 62
    3
370
    0
100
AcDbLine
 10
-318.8533325195312
 20
-285.0132656097412
 11
-318.8533325195312
 21
-275.0132656097412
  0
LINE
  5
E3
100
AcDbEntity
  8
Unnamed [1]
  6
CONTINUOUS
 62
    3
370
    0
100
AcDbLine
 10
-311.8533325195312
 20
-285.0132656097412
 11
-318.8533325195312
 21
-285.0132656097412
  0
LINE
  5
E4
100
AcDbEntity
  8
Unnamed [1]
  6
CONTINUOUS
 62
    3
370
    0
100
AcDbLine
 10
-88.85333251953125
 20
-339.0132656097412
 11
-88.85333251953125
 21
-235.0132656097412
  0
LINE
  5
E5
100
AcDbEntity
  8
Unnamed [1]
  6
CONTINUOUS
 62
    3
370
    0
100
AcDbLine
 10
-478.8533325195312
 20
-375.0132656097412
 11
-478.8533325195312
 21
-305.0132656097412
  0
LINE
  5
E6
100
AcDbEntity
  8
Unnamed [1]
  6
CONTINUOUS
 62
    3
370
    0
100
AcDbLine
 10
-488.8533325195312
 20
-322.0132656097413
 11
-488.8533325195312
 21
-288.0132656097413
  0
LINE
  5
E7
100
AcDbEntity
  8
Unnamed [1]
  6
CONTINUOUS
 62
    3
370
    0
100
AcDbLine
 10
-481.4533325195313
 20
-305.0132656097412
 11
-482.1125077934867
 21
-323.8895757125594
  0
LINE
  5
E8
100
AcDbEntity
  8
Unnamed [1]
  6
CONTINUOUS
 62
    3
370
    0
100
AcDbLine
 10
-478.8533325195312
 20
-275.0132656097412
 11
-408.8533325195312
 21
-275.0132656097412
  0
LINE
  5
E9
100
AcDbEntity
  8
Unnamed [1]
  6
CONTINUOUS
 62
    3
370
    0
100
AcDbLine
 10
-408.8533325195312
 20
-275.0132656097412
 11
-408.8533325195312
 21
-265.0132656097412
  0
LINE
  5
EA
100
AcDbEntity
  8
Unnamed [1]
  6
CONTINUOUS
 62
    3
370
    0
100
AcDbLine
 10
-408.8533325195312
 20
-265.0132656097412
 11
-388.8533325195312
 21
-265.0132656097412
  0
LINE
  5
EB
100
AcDbEntity
  8
Unnamed [1]
  6
CONTINUOUS
 62
    3
370
    0
100
AcDbLine
 10
-478.8533325195312
 20
-285.0132656097412
 11
-478.8533325195312
 21
-275.0132656097412
  0
LINE
  5
EC
100
AcDbEntity
  8
Unnamed [1]
  6
CONTINUOUS
 62
    3
370
    0
100
AcDbLine
 10
-316.2533325195312
 20
-305.0132656097412
 11
-318.8533325195312
 21
-305.0132656097412
  0
LINE
  5
ED
100
AcDbEntity
  8
Unnamed [1]
  6
CONTINUOUS
 62
    3
370
    0
100
AcDbLine
 10
-318.8533325195312
 20
-375.0132656097412
 11
-318.8533325195312
 21
-305.0132656097412
  0
LINE
  5
EE
100
AcDbEntity
  8
Unnamed [1]
  6
CONTINUOUS
 62
    3
370
    0
100
AcDbLine
 10
-295.8533325195312
 20
-325.0132656097412
 11
-288.8533325195312
 21
-325.0132656097412
  0
LINE
  5
EF
100
AcDbEntity
  8
Unnamed [1]
  6
CONTINUOUS
 62
    3
370
    0
100
AcDbLine
 10
-578.8533325195312
 20
-275.0132656097412
 11
-508.8533325195312
 21
-275.0132656097412
  0
LINE
  5
F0
100
AcDbEntity
  8
Unnamed [1]
  6
CONTINUOUS
 62
    3
370
    0
100
AcDbLine
 10
-598.8533325195312
 20
-265.0132656097412
 11
-578.8533325195312
 21
-265.0132656097412
  0
LINE
  5
F1
100
AcDbEntity
  8
Unnamed [1]
  6
CONTINUOUS
 62
    3
370
    0
100
AcDbLine
 10
-578.8533325195312
 20
-275.0132656097412
 11
-578.8533325195312
 21
-265.0132656097412
  0
LINE
  5
F2
100
AcDbEntity
  8
Unnamed [1]
  6
CONTINUOUS
 62
    3
370
    0
100
AcDbLine
 10
-298.8533325195312
 20
-288.0132656097412
 11
-298.8533325195312
 21
-322.0132656097412
  0
LINE
  5
F3
100
AcDbEntity
  8
Unnamed [1]
  6
CONTINUOUS
 62
    3
370
    0
100
AcDbLine
 10
-128.8533325195312
 20
-395.0132656097412
 11
-128.8533325195312
 21
-325.0132656097412
  0
LINE
  5
F4
100
AcDbEntity
  8
Unnamed [1]
  6
CONTINUOUS
 62
    3
370
    0
100
AcDbLine
 10
-121.8533325195312
 20
-285.0132656097412
 11
-123.2533325195312
 21
-285.0132656097412
  0
LINE
  5
F5
100
AcDbEntity
  8
Unnamed [1]
  6
CONTINUOUS
 62
    3
370
    0
100
AcDbLine
 10
-121.8533325195312
 20
-325.0132656097412
 11
-128.8533325195312
 21
-325.0132656097412
  0
LINE
  5
F6
100
AcDbEntity
  8
Unnamed [1]
  6
CONTINUOUS
 62
    3
370
    0
100
AcDbLine
 10
-126.2533325195312
 20
-305.0132656097412
 11
-128.8533325195312
 21
-305.0132656097412
  0
LINE
  5
F7
100
AcDbEntity
  8
Unnamed [1]
  6
CONTINUOUS
 62
    3
370
    0
100
AcDbLine
 10
-126.2533325195312
 20
-305.0132656097412
 11
-125.594157245576
 21
-286.1369555069231
  0
LINE
  5
F8
100
AcDbEntity
  8
Unnamed [1]
  6
CONTINUOUS
 62
    3
370
    0
100
AcDbLine
 10
-291.4533325195313
 20
-305.0132656097412
 11
-292.1125077934865
 21
-286.1369555069231
  0
LINE
  5
F9
100
AcDbEntity
  8
Unnamed [1]
  6
CONTINUOUS
 62
    3
370
    0
100
AcDbLine
 10
-291.4533325195313
 20
-305.0132656097412
 11
-288.8533325195312
 21
-305.0132656097412
  0
LINE
  5
FA
100
AcDbEntity
  8
Unnamed [1]
  6
CONTINUOUS
 62
    3
370
    0
100
AcDbLine
 10
-295.8533325195312
 20
-285.0132656097412
 11
-294.4533325195313
 21
-285.0132656097412
  0
LINE
  5
FB
100
AcDbEntity
  8
Unnamed [1]
  6
CONTINUOUS
 62
    3
370
    0
100
AcDbLine
 10
-121.8533325195312
 20
-375.0132656097412
 11
-123.2533325195312
 21
-375.0132656097412
  0
LINE
  5
FC
100
AcDbEntity
  8
Unnamed [1]
  6
CONTINUOUS
 62
    3
370
    0
100
AcDbLine
 10
-118.8533325195312
 20
-378.0132656097412
 11
-118.8533325195312
 21
-412.0132656097412
  0
LINE
  5
FD
100
AcDbEntity
  8
Unnamed [1]
  6
CONTINUOUS
 62
    3
370
    0
100
AcDbLine
 10
-121.8533325195312
 20
-415.0132656097412
 11
-128.8533325195312
 21
-415.0132656097412
  0
LINE
  5
FE
100
AcDbEntity
  8
Unnamed [1]
  6
CONTINUOUS
 62
    3
370
    0
100
AcDbLine
 10
-126.2533325195312
 20
-395.0132656097412
 11
-128.8533325195312
 21
-395.0132656097412
  0
LINE
  5
FF
100
AcDbEntity
  8
Unnamed [1]
  6
CONTINUOUS
 62
    3
370
    0
100
AcDbLine
 10
-126.2533325195312
 20
-395.0132656097412
 11
-125.594157245576
 21
-376.1369555069231
  0
LINE
  5
100
100
AcDbEntity
  8
Unnamed [1]
  6
CONTINUOUS
 62
    3
370
    0
100
AcDbLine
 10
-128.8533325195312
 20
-475.0132656097412
 11
-128.8533325195312
 21
-415.0132656097412
  0
LINE
  5
101
100
AcDbEntity
  8
Unnamed [1]
  6
CONTINUOUS
 62
    3
370
    0
100
AcDbLine
 10
-298.8533325195312
 20
-378.0132656097412
 11
-298.8533325195312
 21
-412.0132656097412
  0
LINE
  5
102
100
AcDbEntity
  8
Unnamed [1]
  6
CONTINUOUS
 62
    3
370
    0
100
AcDbLine
 10
-291.4533325195313
 20
-395.0132656097412
 11
-288.8533325195312
 21
-395.0132656097412
  0
LINE
  5
103
100
AcDbEntity
  8
Unnamed [1]
  6
CONTINUOUS
 62
    3
370
    0
100
AcDbLine
 10
-295.8533325195312
 20
-375.0132656097412
 11
-294.4533325195313
 21
-375.0132656097412
  0
LINE
  5
104
100
AcDbEntity
  8
Unnamed [1]
  6
CONTINUOUS
 62
    3
370
    0
100
AcDbLine
 10
-281.3533325195312
 20
-443.2632656097412
 11
-281.3533325195312
 21
-466.7632656097412
  0
LINE
  5
105
100
AcDbEntity
  8
Unnamed [1]
  6
CONTINUOUS
 62
    3
370
    0
100
AcDbLine
 10
-271.3533325195312
 20
-443.2632656097412
 11
-271.3533325195312
 21
-466.7632656097412
  0
LINE
  5
106
100
AcDbEntity
  8
Unnamed [1]
  6
CONTINUOUS
 62
    3
370
    0
100
AcDbLine
 10
-267.8533325195312
 20
-443.2632656097412
 11
-267.8533325195312
 21
-466.7632656097412
  0
LINE
  5
107
100
AcDbEntity
  8
Unnamed [1]
  6
CONTINUOUS
 62
    3
370
    0
100
AcDbLine
 10
-257.8533325195312
 20
-443.2632656097412
 11
-257.8533325195312
 21
-466.7632656097412
  0
LINE
  5
108
100
AcDbEntity
  8
Unnamed [1]
  6
CONTINUOUS
 62
    3
370
    0
100
AcDbLine
 10
-254.3533325195312
 20
-443.2632656097412
 11
-254.3533325195312
 21
-466.7632656097412
  0
LINE
  5
109
100
AcDbEntity
  8
Unnamed [1]
  6
CONTINUOUS
 62
    3
370
    0
100
AcDbLine
 10
-244.3533325195312
 20
-443.2632656097412
 11
-244.3533325195312
 21
-466.7632656097412
  0
LINE
  5
10A
100
AcDbEntity
  8
Unnamed [1]
  6
CONTINUOUS
 62
    3
370
    0
100
AcDbLine
 10
-240.8533325195312
 20
-443.2632656097412
 11
-240.8533325195312
 21
-466.7632656097412
  0
LINE
  5
10B
100
AcDbEntity
  8
Unnamed [1]
  6
CONTINUOUS
 62
    3
370
    0
100
AcDbLine
 10
-230.8533325195312
 20
-443.2632656097412
 11
-230.8533325195312
 21
-466.7632656097412
  0
LINE
  5
10C
100
AcDbEntity
  8
Unnamed [1]
  6
CONTINUOUS
 62
    3
370
    0
100
AcDbLine
 10
-227.3533325195312
 20
-443.2632656097412
 11
-227.3533325195312
 21
-466.7632656097412
  0
LINE
  5
10D
100
AcDbEntity
  8
Unnamed [1]
  6
CONTINUOUS
 62
    3
370
    0
100
AcDbLine
 10
-217.3533325195312
 20
-443.2632656097412
 11
-217.3533325195312
 21
-466.7632656097412
  0
LINE
  5
10E
100
AcDbEntity
  8
Unnamed [1]
  6
CONTINUOUS
 62
    3
370
    0
100
AcDbLine
 10
-146.3533325195312
 20
-443.2632656097412
 11
-146.3533325195312
 21
-466.7632656097412
  0
LINE
  5
10F
100
AcDbEntity
  8
Unnamed [1]
  6
CONTINUOUS
 62
    3
370
    0
100
AcDbLine
 10
-136.3533325195312
 20
-443.2632656097412
 11
-136.3533325195312
 21
-466.7632656097412
  0
LINE
  5
110
100
AcDbEntity
  8
Unnamed [1]
  6
CONTINUOUS
 62
    3
370
    0
100
AcDbLine
 10
-159.8533325195312
 20
-443.2632656097412
 11
-159.8533325195312
 21
-466.7632656097412
  0
LINE
  5
111
100
AcDbEntity
  8
Unnamed [1]
  6
CONTINUOUS
 62
    3
370
    0
100
AcDbLine
 10
-149.8533325195312
 20
-443.2632656097412
 11
-149.8533325195312
 21
-466.7632656097412
  0
LINE
  5
112
100
AcDbEntity
  8
Unnamed [1]
  6
CONTINUOUS
 62
    3
370
    0
100
AcDbLine
 10
-173.3533325195312
 20
-443.2632656097412
 11
-173.3533325195312
 21
-466.7632656097412
  0
LINE
  5
113
100
AcDbEntity
  8
Unnamed [1]
  6
CONTINUOUS
 62
    3
370
    0
100
AcDbLine
 10
-163.3533325195312
 20
-443.2632656097412
 11
-163.3533325195312
 21
-466.7632656097412
  0
LINE
  5
114
100
AcDbEntity
  8
Unnamed [1]
  6
CONTINUOUS
 62
    3
370
    0
100
AcDbLine
 10
-186.8533325195312
 20
-443.2632656097412
 11
-186.8533325195312
 21
-466.7632656097412
  0
LINE
  5
115
100
AcDbEntity
  8
Unnamed [1]
  6
CONTINUOUS
 62
    3
370
    0
100
AcDbLine
 10
-176.8533325195312
 20
-443.2632656097412
 11
-176.8533325195312
 21
-466.7632656097412
  0
LINE
  5
116
100
AcDbEntity
  8
Unnamed [1]
  6
CONTINUOUS
 62
    3
370
    0
100
AcDbLine
 10
-200.3533325195312
 20
-443.2632656097412
 11
-200.3533325195312
 21
-466.7632656097412
  0
LINE
  5
117
100
AcDbEntity
  8
Unnamed [1]
  6
CONTINUOUS
 62
    3
370
    0
100
AcDbLine
 10
-190.3533325195312
 20
-443.2632656097412
 11
-190.3533325195312
 21
-466.7632656097412
  0
LINE
  5
118
100
AcDbEntity
  8
Unnamed [1]
  6
CONTINUOUS
 62
    3
370
    0
100
AcDbLine
 10
-213.8533325195312
 20
-443.2632656097412
 11
-213.8533325195312
 21
-466.7632656097412
  0
LINE
  5
119
100
AcDbEntity
  8
Unnamed [1]
  6
CONTINUOUS
 62
    3
370
    0
100
AcDbLine
 10
-203.8533325195312
 20
-443.2632656097412
 11
-203.8533325195312
 21
-466.7632656097412
  0
LINE
  5
11A
100
AcDbEntity
  8
Unnamed [1]
  6
CONTINUOUS
 62
    3
370
    0
100
AcDbLine
 10
-83.85333251953125
 20
-242.0132656097412
 11
-83.85333251953125
 21
-250.0132656097412
  0
LINE
  5
11B
100
AcDbEntity
  8
Unnamed [1]
  6
CONTINUOUS
 62
    3
370
    0
100
AcDbLine
 10
-73.85333251953125
 20
-242.0132656097412
 11
-73.85333251953125
 21
-250.0132656097412
  0
LINE
  5
11C
100
AcDbEntity
  8
Unnamed [1]
  6
CONTINUOUS
 62
    3
370
    0
100
AcDbLine
 10
-71.35333251953125
 20
-242.0132656097412
 11
-71.35333251953125
 21
-250.0132656097412
  0
LINE
  5
11D
100
AcDbEntity
  8
Unnamed [1]
  6
CONTINUOUS
 62
    3
370
    0
100
AcDbLine
 10
-61.35333251953125
 20
-242.0132656097412
 11
-61.35333251953125
 21
-250.0132656097412
  0
LINE
  5
11E
100
AcDbEntity
  8
Unnamed [1]
  6
CONTINUOUS
 62
    3
370
    0
100
AcDbLine
 10
-58.85333251953125
 20
-242.0132656097412
 11
-58.85333251953125
 21
-250.0132656097412
  0
LINE
  5
11F
100
AcDbEntity
  8
Unnamed [1]
  6
CONTINUOUS
 62
    3
370
    0
100
AcDbLine
 10
-48.85333251953125
 20
-242.0132656097412
 11
-48.85333251953125
 21
-250.0132656097412
  0
LINE
  5
120
100
AcDbEntity
  8
Unnamed [1]
  6
CONTINUOUS
 62
    3
370
    0
100
AcDbLine
 10
-46.35333251953125
 20
-242.0132656097412
 11
-46.35333251953125
 21
-250.0132656097412
  0
LINE
  5
121
100
AcDbEntity
  8
Unnamed [1]
  6
CONTINUOUS
 62
    3
370
    0
100
AcDbLine
 10
-36.35333251953125
 20
-242.0132656097412
 11
-36.35333251953125
 21
-250.0132656097412
  0
LINE
  5
122
100
AcDbEntity
  8
Unnamed [1]
  6
CONTINUOUS
 62
    3
370
    0
100
AcDbLine
 10
26.14666748046875
 20
-242.0132656097412
 11
26.14666748046875
 21
-250.0132656097412
  0
LINE
  5
123
100
AcDbEntity
  8
Unnamed [1]
  6
CONTINUOUS
 62
    3
370
    0
100
AcDbLine
 10
-8.85333251953125
 20
-242.0132656097412
 11
-8.85333251953125
 21
-250.0132656097412
  0
LINE
  5
124
100
AcDbEntity
  8
Unnamed [1]
  6
CONTINUOUS
 62
    3
370
    0
100
AcDbLine
 10
1.14666748046875
 20
-242.0132656097412
 11
1.14666748046875
 21
-250.0132656097412
  0
LINE
  5
125
100
AcDbEntity
  8
Unnamed [1]
  6
CONTINUOUS
 62
    3
370
    0
100
AcDbLine
 10
-21.35333251953125
 20
-242.0132656097412
 11
-21.35333251953125
 21
-250.0132656097412
  0
LINE
  5
126
100
AcDbEntity
  8
Unnamed [1]
  6
CONTINUOUS
 62
    3
370
    0
100
AcDbLine
 10
-11.35333251953125
 20
-242.0132656097412
 11
-11.35333251953125
 21
-250.0132656097412
  0
LINE
  5
127
100
AcDbEntity
  8
Unnamed [1]
  6
CONTINUOUS
 62
    3
370
    0
100
AcDbLine
 10
-33.85333251953125
 20
-242.0132656097412
 11
-33.85333251953125
 21
-250.0132656097412
  0
LINE
  5
128
100
AcDbEntity
  8
Unnamed [1]
  6
CONTINUOUS
 62
    3
370
    0
100
AcDbLine
 10
-23.85333251953125
 20
-242.0132656097412
 11
-23.85333251953125
 21
-250.0132656097412
  0
LINE
  5
129
100
AcDbEntity
  8
Unnamed [1]
  6
CONTINUOUS
 62
    3
370
    0
100
AcDbLine
 10
-91.45333251953127
 20
-339.0132656097412
 11
-92.11250779348649
 21
-320.1369555069231
  0
LINE
  5
12A
100
AcDbEntity
  8
Unnamed [1]
  6
CONTINUOUS
 62
    3
370
    0
100
AcDbLine
 10
-95.85333251953125
 20
-319.0132656097412
 11
-94.45333251953127
 21
-319.0132656097412
  0
LINE
  5
12B
100
AcDbEntity
  8
Unnamed [1]
  6
CONTINUOUS
 62
    3
370
    0
100
AcDbLine
 10
-95.85333251953125
 20
-409.0132656097412
 11
-94.45333251953127
 21
-409.0132656097412
  0
LINE
  5
12C
100
AcDbEntity
  8
Unnamed [1]
  6
CONTINUOUS
 62
    3
370
    0
100
AcDbLine
 10
-98.85333251953125
 20
-412.0132656097412
 11
-98.85333251953125
 21
-446.0132656097412
  0
LINE
  5
12D
100
AcDbEntity
  8
Unnamed [1]
  6
CONTINUOUS
 62
    3
370
    0
100
AcDbLine
 10
-95.85333251953125
 20
-449.0132656097412
 11
-88.85333251953125
 21
-449.0132656097412
  0
LINE
  5
12E
100
AcDbEntity
  8
Unnamed [1]
  6
CONTINUOUS
 62
    3
370
    0
100
AcDbLine
 10
-91.45333251953127
 20
-429.0132656097412
 11
-88.85333251953125
 21
-429.0132656097412
  0
LINE
  5
12F
100
AcDbEntity
  8
Unnamed [1]
  6
CONTINUOUS
 62
    3
370
    0
100
AcDbLine
 10
-91.45333251953127
 20
-429.0132656097412
 11
-92.11250779348649
 21
-410.1369555069231
  0
LINE
  5
130
100
AcDbEntity
  8
Unnamed [1]
  6
CONTINUOUS
 62
    3
370
    0
100
AcDbLine
 10
-98.85333251953125
 20
-322.0132656097412
 11
-98.85333251953125
 21
-356.0132656097412
  0
LINE
  5
131
100
AcDbEntity
  8
Unnamed [1]
  6
CONTINUOUS
 62
    3
370
    0
100
AcDbLine
 10
-95.85333251953125
 20
-359.0132656097412
 11
-88.85333251953125
 21
-359.0132656097412
  0
LINE
  5
132
100
AcDbEntity
  8
Unnamed [1]
  6
CONTINUOUS
 62
    3
370
    0
100
AcDbLine
 10
-88.85333251953125
 20
-429.0132656097412
 11
-88.85333251953125
 21
-359.0132656097412
  0
LINE
  5
133
100
AcDbEntity
  8
Unnamed [1]
  6
CONTINUOUS
 62
    3
370
    0
100
AcDbLine
 10
-91.45333251953127
 20
-339.0132656097412
 11
-88.85333251953125
 21
-339.0132656097412
  0
LINE
  5
134
100
AcDbEntity
  8
Unnamed [1]
  6
CONTINUOUS
 62
    3
370
    0
100
AcDbLine
 10
38.14666748046875
 20
-359.0132656097412
 11
31.14666748046875
 21
-359.0132656097412
  0
LINE
  5
135
100
AcDbEntity
  8
Unnamed [1]
  6
CONTINUOUS
 62
    3
370
    0
100
AcDbLine
 10
38.14666748046875
 20
-319.0132656097412
 11
36.74666748046877
 21
-319.0132656097412
  0
LINE
  5
136
100
AcDbEntity
  8
Unnamed [1]
  6
CONTINUOUS
 62
    3
370
    0
100
AcDbLine
 10
31.14666748046875
 20
-429.0132656097412
 11
31.14666748046875
 21
-359.0132656097412
  0
LINE
  5
137
100
AcDbEntity
  8
Unnamed [1]
  6
CONTINUOUS
 62
    3
370
    0
100
AcDbLine
 10
38.14666748046875
 20
-449.0132656097412
 11
31.14666748046875
 21
-449.0132656097412
  0
LINE
  5
138
100
AcDbEntity
  8
Unnamed [1]
  6
CONTINUOUS
 62
    3
370
    0
100
AcDbLine
 10
33.74666748046877
 20
-429.0132656097412
 11
31.14666748046875
 21
-429.0132656097412
  0
LINE
  5
139
100
AcDbEntity
  8
Unnamed [1]
  6
CONTINUOUS
 62
    3
370
    0
100
AcDbLine
 10
33.74666748046877
 20
-429.0132656097412
 11
34.40584275442399
 21
-410.1369555069231
  0
LINE
  5
13A
100
AcDbEntity
  8
Unnamed [1]
  6
CONTINUOUS
 62
    3
370
    0
100
AcDbLine
 10
33.74666748046877
 20
-339.0132656097412
 11
34.40584275442399
 21
-320.1369555069231
  0
LINE
  5
13B
100
AcDbEntity
  8
Unnamed [1]
  6
CONTINUOUS
 62
    3
370
    0
100
AcDbLine
 10
33.74666748046877
 20
-339.0132656097412
 11
31.14666748046875
 21
-339.0132656097412
  0
LINE
  5
13C
100
AcDbEntity
  8
Unnamed [1]
  6
CONTINUOUS
 62
    3
370
    0
100
AcDbLine
 10
38.14666748046875
 20
-409.0132656097412
 11
36.74666748046877
 21
-409.0132656097412
  0
LINE
  5
13D
100
AcDbEntity
  8
Unnamed [1]
  6
CONTINUOUS
 62
    3
370
    0
100
AcDbLine
 10
41.14666748046875
 20
-412.0132656097412
 11
41.14666748046875
 21
-446.0132656097412
  0
LINE
  5
13E
100
AcDbEntity
  8
Unnamed [1]
  6
CONTINUOUS
 62
    3
370
    0
100
AcDbLine
 10
41.14666748046875
 20
-322.0132656097412
 11
41.14666748046875
 21
-356.0132656097412
  0
LINE
  5
13F
100
AcDbEntity
  8
Unnamed [1]
  6
CONTINUOUS
 62
    3
370
    0
100
AcDbLine
 10
31.14666748046875
 20
-475.0132656097412
 11
31.14666748046875
 21
-449.0132656097412
  0
LINE
  5
140
100
AcDbEntity
  8
Unnamed [1]
  6
CONTINUOUS
 62
    3
370
    0
100
AcDbLine
 10
-88.85333251953125
 20
-475.0132656097412
 11
-88.85333251953125
 21
-449.0132656097412
  0
LINE
  5
141
100
AcDbEntity
  8
Unnamed [1]
  6
CONTINUOUS
 62
    3
370
    0
100
AcDbLine
 10
-88.85333251953125
 20
-475.0132656097412
 11
31.14666748046875
 21
-475.0132656097412
  0
LINE
  5
142
100
AcDbEntity
  8
Unnamed [1]
  6
CONTINUOUS
 62
    3
370
    0
100
AcDbLine
 10
-488.8533325195312
 20
-412.0132656097413
 11
-488.8533325195312
 21
-378.0132656097413
  0
LINE
  5
143
100
AcDbEntity
  8
Unnamed [1]
  6
CONTINUOUS
 62
    3
370
    0
100
AcDbLine
 10
-478.8533325195312
 20
-475.0132656097412
 11
-478.8533325195312
 21
-395.0132656097412
  0
LINE
  5
144
100
AcDbEntity
  8
Unnamed [1]
  6
CONTINUOUS
 62
    3
370
    0
100
AcDbLine
 10
-485.8533325195312
 20
-375.0132656097412
 11
-478.8533325195312
 21
-375.0132656097412
  0
LINE
  5
145
100
AcDbEntity
  8
Unnamed [1]
  6
CONTINUOUS
 62
    3
370
    0
100
AcDbLine
 10
-478.8533325195312
 20
-475.0132656097412
 11
-318.8533325195312
 21
-475.0132656097412
  0
LINE
  5
146
100
AcDbEntity
  8
Unnamed [1]
  6
CONTINUOUS
 62
    3
370
    0
100
AcDbLine
 10
-311.8533325195312
 20
-325.0132656097412
 11
-313.2533325195312
 21
-325.0132656097412
  0
LINE
  5
147
100
AcDbEntity
  8
Unnamed [1]
  6
CONTINUOUS
 62
    3
370
    0
100
AcDbLine
 10
-308.8533325195312
 20
-322.0132656097413
 11
-308.8533325195312
 21
-288.0132656097413
  0
LINE
  5
148
100
AcDbEntity
  8
Unnamed [1]
  6
CONTINUOUS
 62
    3
370
    0
100
AcDbLine
 10
-316.2533325195312
 20
-305.0132656097412
 11
-315.594157245576
 21
-323.8895757125596
  0
LINE
  5
149
100
AcDbEntity
  8
Unnamed [1]
  6
CONTINUOUS
 62
    3
370
    0
100
AcDbLine
 10
-481.4533325195313
 20
-305.0132656097412
 11
-478.8533325195312
 21
-305.0132656097412
  0
LINE
  5
14A
100
AcDbEntity
  8
Unnamed [1]
  6
CONTINUOUS
 62
    3
370
    0
100
AcDbLine
 10
-485.8533325195312
 20
-285.0132656097412
 11
-478.8533325195312
 21
-285.0132656097412
  0
LINE
  5
14B
100
AcDbEntity
  8
Unnamed [1]
  6
CONTINUOUS
 62
    3
370
    0
100
AcDbLine
 10
-485.8533325195312
 20
-325.0132656097412
 11
-484.4533325195313
 21
-325.0132656097412
  0
LINE
  5
14C
100
AcDbEntity
  8
Unnamed [1]
  6
CONTINUOUS
 62
    3
370
    0
100
AcDbLine
 10
-311.8533325195312
 20
-375.0132656097412
 11
-318.8533325195312
 21
-375.0132656097412
  0
LINE
  5
14D
100
AcDbEntity
  8
Unnamed [1]
  6
CONTINUOUS
 62
    3
370
    0
100
AcDbLine
 10
-481.1041248246138
 20
-395.0132656097412
 11
-481.7426654850981
 21
-413.2986776948085
  0
LINE
  5
14E
100
AcDbEntity
  8
Unnamed [1]
  6
CONTINUOUS
 62
    3
370
    0
100
AcDbLine
 10
-481.1041248246138
 20
-395.0132656097412
 11
-478.8533325195312
 21
-395.0132656097412
  0
LINE
  5
14F
100
AcDbEntity
  8
Unnamed [1]
  6
CONTINUOUS
 62
    3
370
    0
100
AcDbLine
 10
-485.8533325195312
 20
-415.0132656097412
 11
-484.4533325195313
 21
-415.0132656097412
  0
LINE
  5
150
100
AcDbEntity
  8
Unnamed [1]
  6
CONTINUOUS
 62
    3
370
    0
100
AcDbLine
 10
-471.3533325195312
 20
-443.2632656097412
 11
-471.3533325195312
 21
-466.7632656097412
  0
LINE
  5
151
100
AcDbEntity
  8
Unnamed [1]
  6
CONTINUOUS
 62
    3
370
    0
100
AcDbLine
 10
-461.3533325195312
 20
-443.2632656097412
 11
-461.3533325195312
 21
-466.7632656097412
  0
LINE
  5
152
100
AcDbEntity
  8
Unnamed [1]
  6
CONTINUOUS
 62
    3
370
    0
100
AcDbLine
 10
-457.8533325195312
 20
-443.2632656097412
 11
-457.8533325195312
 21
-466.7632656097412
  0
LINE
  5
153
100
AcDbEntity
  8
Unnamed [1]
  6
CONTINUOUS
 62
    3
370
    0
100
AcDbLine
 10
-447.8533325195312
 20
-443.2632656097412
 11
-447.8533325195312
 21
-466.7632656097412
  0
LINE
  5
154
100
AcDbEntity
  8
Unnamed [1]
  6
CONTINUOUS
 62
    3
370
    0
100
AcDbLine
 10
-444.3533325195312
 20
-443.2632656097412
 11
-444.3533325195312
 21
-466.7632656097412
  0
LINE
  5
155
100
AcDbEntity
  8
Unnamed [1]
  6
CONTINUOUS
 62
    3
370
    0
100
AcDbLine
 10
-434.3533325195312
 20
-443.2632656097412
 11
-434.3533325195312
 21
-466.7632656097412
  0
LINE
  5
156
100
AcDbEntity
  8
Unnamed [1]
  6
CONTINUOUS
 62
    3
370
    0
100
AcDbLine
 10
-430.8533325195312
 20
-443.2632656097412
 11
-430.8533325195312
 21
-466.7632656097412
  0
LINE
  5
157
100
AcDbEntity
  8
Unnamed [1]
  6
CONTINUOUS
 62
    3
370
    0
100
AcDbLine
 10
-420.8533325195312
 20
-443.2632656097412
 11
-420.8533325195312
 21
-466.7632656097412
  0
LINE
  5
158
100
AcDbEntity
  8
Unnamed [1]
  6
CONTINUOUS
 62
    3
370
    0
100
AcDbLine
 10
-417.3533325195312
 20
-443.2632656097412
 11
-417.3533325195312
 21
-466.7632656097412
  0
LINE
  5
159
100
AcDbEntity
  8
Unnamed [1]
  6
CONTINUOUS
 62
    3
370
    0
100
AcDbLine
 10
-407.3533325195312
 20
-443.2632656097412
 11
-407.3533325195312
 21
-466.7632656097412
  0
LINE
  5
15A
100
AcDbEntity
  8
Unnamed [1]
  6
CONTINUOUS
 62
    3
370
    0
100
AcDbLine
 10
-336.3533325195312
 20
-443.2632656097412
 11
-336.3533325195312
 21
-466.7632656097412
  0
LINE
  5
15B
100
AcDbEntity
  8
Unnamed [1]
  6
CONTINUOUS
 62
    3
370
    0
100
AcDbLine
 10
-326.3533325195312
 20
-443.2632656097412
 11
-326.3533325195312
 21
-466.7632656097412
  0
LINE
  5
15C
100
AcDbEntity
  8
Unnamed [1]
  6
CONTINUOUS
 62
    3
370
    0
100
AcDbLine
 10
-349.8533325195312
 20
-443.2632656097412
 11
-349.8533325195312
 21
-466.7632656097412
  0
LINE
  5
15D
100
AcDbEntity
  8
Unnamed [1]
  6
CONTINUOUS
 62
    3
370
    0
100
AcDbLine
 10
-339.8533325195312
 20
-443.2632656097412
 11
-339.8533325195312
 21
-466.7632656097412
  0
LINE
  5
15E
100
AcDbEntity
  8
Unnamed [1]
  6
CONTINUOUS
 62
    3
370
    0
100
AcDbLine
 10
-363.3533325195312
 20
-443.2632656097412
 11
-363.3533325195312
 21
-466.7632656097412
  0
LINE
  5
15F
100
AcDbEntity
  8
Unnamed [1]
  6
CONTINUOUS
 62
    3
370
    0
100
AcDbLine
 10
-353.3533325195312
 20
-443.2632656097412
 11
-353.3533325195312
 21
-466.7632656097412
  0
LINE
  5
160
100
AcDbEntity
  8
Unnamed [1]
  6
CONTINUOUS
 62
    3
370
    0
100
AcDbLine
 10
-376.8533325195312
 20
-443.2632656097412
 11
-376.8533325195312
 21
-466.7632656097412
  0
LINE
  5
161
100
AcDbEntity
  8
Unnamed [1]
  6
CONTINUOUS
 62
    3
370
    0
100
AcDbLine
 10
-366.8533325195312
 20
-443.2632656097412
 11
-366.8533325195312
 21
-466.7632656097412
  0
LINE
  5
162
100
AcDbEntity
  8
Unnamed [1]
  6
CONTINUOUS
 62
    3
370
    0
100
AcDbLine
 10
-390.3533325195312
 20
-443.2632656097412
 11
-390.3533325195312
 21
-466.7632656097412
  0
LINE
  5
163
100
AcDbEntity
  8
Unnamed [1]
  6
CONTINUOUS
 62
    3
370
    0
100
AcDbLine
 10
-380.3533325195312
 20
-443.2632656097412
 11
-380.3533325195312
 21
-466.7632656097412
  0
LINE
  5
164
100
AcDbEntity
  8
Unnamed [1]
  6
CONTINUOUS
 62
    3
370
    0
100
AcDbLine
 10
-403.8533325195312
 20
-443.2632656097412
 11
-403.8533325195312
 21
-466.7632656097412
  0
LINE
  5
165
100
AcDbEntity
  8
Unnamed [1]
  6
CONTINUOUS
 62
    3
370
    0
100
AcDbLine
 10
-393.8533325195312
 20
-443.2632656097412
 11
-393.8533325195312
 21
-466.7632656097412
  0
LINE
  5
166
100
AcDbEntity
  8
Unnamed [1]
  6
CONTINUOUS
 62
    3
370
    0
100
AcDbLine
 10
66.14666748046875
 20
-242.0132656097412
 11
66.14666748046875
 21
-250.0132656097412
  0
LINE
  5
167
100
AcDbEntity
  8
Unnamed [1]
  6
CONTINUOUS
 62
    3
370
    0
100
AcDbLine
 10
76.14666748046875
 20
-242.0132656097412
 11
76.14666748046875
 21
-250.0132656097412
  0
LINE
  5
168
100
AcDbEntity
  8
Unnamed [1]
  6
CONTINUOUS
 62
    3
370
    0
100
AcDbLine
 10
78.64666748046875
 20
-242.0132656097412
 11
78.64666748046875
 21
-250.0132656097412
  0
LINE
  5
169
100
AcDbEntity
  8
Unnamed [1]
  6
CONTINUOUS
 62
    3
370
    0
100
AcDbLine
 10
88.64666748046875
 20
-242.0132656097412
 11
88.64666748046875
 21
-250.0132656097412
  0
LINE
  5
16A
100
AcDbEntity
  8
Unnamed [1]
  6
CONTINUOUS
 62
    3
370
    0
100
AcDbLine
 10
91.14666748046875
 20
-242.0132656097412
 11
91.14666748046875
 21
-250.0132656097412
  0
LINE
  5
16B
100
AcDbEntity
  8
Unnamed [1]
  6
CONTINUOUS
 62
    3
370
    0
100
AcDbLine
 10
101.1466674804688
 20
-242.0132656097412
 11
101.1466674804688
 21
-250.0132656097412
  0
LINE
  5
16C
100
AcDbEntity
  8
Unnamed [1]
  6
CONTINUOUS
 62
    3
370
    0
100
AcDbLine
 10
103.6466674804688
 20
-242.0132656097412
 11
103.6466674804688
 21
-250.0132656097412
  0
LINE
  5
16D
100
AcDbEntity
  8
Unnamed [1]
  6
CONTINUOUS
 62
    3
370
    0
100
AcDbLine
 10
113.6466674804688
 20
-242.0132656097412
 11
113.6466674804688
 21
-250.0132656097412
  0
LINE
  5
16E
100
AcDbEntity
  8
Unnamed [1]
  6
CONTINUOUS
 62
    3
370
    0
100
AcDbLine
 10
166.1466674804688
 20
-242.0132656097412
 11
166.1466674804688
 21
-250.0132656097412
  0
LINE
  5
16F
100
AcDbEntity
  8
Unnamed [1]
  6
CONTINUOUS
 62
    3
370
    0
100
AcDbLine
 10
176.1466674804688
 20
-242.0132656097412
 11
176.1466674804688
 21
-250.0132656097412
  0
LINE
  5
170
100
AcDbEntity
  8
Unnamed [1]
  6
CONTINUOUS
 62
    3
370
    0
100
AcDbLine
 10
153.6466674804688
 20
-242.0132656097412
 11
153.6466674804688
 21
-250.0132656097412
  0
LINE
  5
171
100
AcDbEntity
  8
Unnamed [1]
  6
CONTINUOUS
 62
    3
370
    0
100
AcDbLine
 10
163.6466674804688
 20
-242.0132656097412
 11
163.6466674804688
 21
-250.0132656097412
  0
LINE
  5
172
100
AcDbEntity
  8
Unnamed [1]
  6
CONTINUOUS
 62
    3
370
    0
100
AcDbLine
 10
141.1466674804688
 20
-242.0132656097412
 11
141.1466674804688
 21
-250.0132656097412
  0
LINE
  5
173
100
AcDbEntity
  8
Unnamed [1]
  6
CONTINUOUS
 62
    3
370
    0
100
AcDbLine
 10
151.1466674804688
 20
-242.0132656097412
 11
151.1466674804688
 21
-250.0132656097412
  0
LINE
  5
174
100
AcDbEntity
  8
Unnamed [1]
  6
CONTINUOUS
 62
    3
370
    0
100
AcDbLine
 10
128.6466674804688
 20
-242.0132656097412
 11
128.6466674804688
 21
-250.0132656097412
  0
LINE
  5
175
100
AcDbEntity
  8
Unnamed [1]
  6
CONTINUOUS
 62
    3
370
    0
100
AcDbLine
 10
138.6466674804688
 20
-242.0132656097412
 11
138.6466674804688
 21
-250.0132656097412
  0
LINE
  5
176
100
AcDbEntity
  8
Unnamed [1]
  6
CONTINUOUS
 62
    3
370
    0
100
AcDbLine
 10
116.1466674804688
 20
-242.0132656097412
 11
116.1466674804688
 21
-250.0132656097412
  0
LINE
  5
177
100
AcDbEntity
  8
Unnamed [1]
  6
CONTINUOUS
 62
    3
370
    0
100
AcDbLine
 10
126.1466674804688
 20
-242.0132656097412
 11
126.1466674804688
 21
-250.0132656097412
  0
LINE
  5
178
100
AcDbEntity
  8
Unnamed [1]
  6
CONTINUOUS
 62
    3
370
    0
100
AcDbLine
 10
58.54666748046873
 20
-339.0132656097412
 11
57.8874922065135
 21
-357.8895757125593
  0
LINE
  5
179
100
AcDbEntity
  8
Unnamed [1]
  6
CONTINUOUS
 62
    3
370
    0
100
AcDbLine
 10
54.14666748046875
 20
-359.0132656097412
 11
55.54666748046873
 21
-359.0132656097412
  0
LINE
  5
17A
100
AcDbEntity
  8
Unnamed [1]
  6
CONTINUOUS
 62
    3
370
    0
100
AcDbLine
 10
54.14666748046875
 20
-409.0132656097412
 11
61.14666748046875
 21
-409.0132656097412
  0
LINE
  5
17B
100
AcDbEntity
  8
Unnamed [1]
  6
CONTINUOUS
 62
    3
370
    0
100
AcDbLine
 10
58.54666748046873
 20
-429.0132656097412
 11
61.14666748046875
 21
-429.0132656097412
  0
LINE
  5
17C
100
AcDbEntity
  8
Unnamed [1]
  6
CONTINUOUS
 62
    3
370
    0
100
AcDbLine
 10
58.54666748046873
 20
-429.0132656097412
 11
57.8874922065135
 21
-447.8895757125595
  0
LINE
  5
17D
100
AcDbEntity
  8
Unnamed [1]
  6
CONTINUOUS
 62
    3
370
    0
100
AcDbLine
 10
54.14666748046875
 20
-319.0132656097412
 11
61.14666748046875
 21
-319.0132656097412
  0
LINE
  5
17E
100
AcDbEntity
  8
Unnamed [1]
  6
CONTINUOUS
 62
    3
370
    0
100
AcDbLine
 10
61.14666748046875
 20
-319.0132656097412
 11
61.14666748046875
 21
-235.0132656097412
  0
LINE
  5
17F
100
AcDbEntity
  8
Unnamed [1]
  6
CONTINUOUS
 62
    3
370
    0
100
AcDbLine
 10
58.54666748046873
 20
-339.0132656097412
 11
61.14666748046875
 21
-339.0132656097412
  0
LINE
  5
180
100
AcDbEntity
  8
Unnamed [1]
  6
CONTINUOUS
 62
    3
370
    0
100
AcDbLine
 10
188.1466674804688
 20
-319.0132656097412
 11
181.1466674804688
 21
-319.0132656097412
  0
LINE
  5
181
100
AcDbEntity
  8
Unnamed [1]
  6
CONTINUOUS
 62
    3
370
    0
100
AcDbLine
 10
188.1466674804688
 20
-359.0132656097412
 11
186.7466674804688
 21
-359.0132656097412
  0
LINE
  5
182
100
AcDbEntity
  8
Unnamed [1]
  6
CONTINUOUS
 62
    3
370
    0
100
AcDbLine
 10
181.1466674804688
 20
-319.0132656097412
 11
181.1466674804688
 21
-235.0132656097412
  0
LINE
  5
183
100
AcDbEntity
  8
Unnamed [1]
  6
CONTINUOUS
 62
    3
370
    0
100
AcDbLine
 10
188.1466674804688
 20
-409.0132656097412
 11
181.1466674804688
 21
-409.0132656097412
  0
LINE
  5
184
100
AcDbEntity
  8
Unnamed [1]
  6
CONTINUOUS
 62
    3
370
    0
100
AcDbLine
 10
183.7466674804688
 20
-429.0132656097412
 11
181.1466674804688
 21
-429.0132656097412
  0
LINE
  5
185
100
AcDbEntity
  8
Unnamed [1]
  6
CONTINUOUS
 62
    3
370
    0
100
AcDbLine
 10
183.7466674804688
 20
-429.0132656097412
 11
184.405842754424
 21
-447.8895757125593
  0
LINE
  5
186
100
AcDbEntity
  8
Unnamed [1]
  6
CONTINUOUS
 62
    3
370
    0
100
AcDbLine
 10
183.7466674804688
 20
-339.0132656097412
 11
184.405842754424
 21
-357.8895757125593
  0
LINE
  5
187
100
AcDbEntity
  8
Unnamed [1]
  6
CONTINUOUS
 62
    3
370
    0
100
AcDbLine
 10
183.7466674804688
 20
-339.0132656097412
 11
181.1466674804688
 21
-339.0132656097412
  0
LINE
  5
188
100
AcDbEntity
  8
Unnamed [1]
  6
CONTINUOUS
 62
    3
370
    0
100
AcDbLine
 10
188.1466674804688
 20
-449.0132656097412
 11
186.7466674804688
 21
-449.0132656097412
  0
LINE
  5
189
100
AcDbEntity
  8
Unnamed [1]
  6
CONTINUOUS
 62
    3
370
    0
100
AcDbLine
 10
191.1466674804688
 20
-446.0132656097411
 11
191.1466674804688
 21
-412.0132656097412
  0
LINE
  5
18A
100
AcDbEntity
  8
Unnamed [1]
  6
CONTINUOUS
 62
    3
370
    0
100
AcDbLine
 10
191.1466674804688
 20
-356.0132656097412
 11
191.1466674804688
 21
-322.0132656097412
  0
LINE
  5
18B
100
AcDbEntity
  8
Unnamed [1]
  6
CONTINUOUS
 62
    3
370
    0
100
AcDbLine
 10
181.1466674804688
 20
-475.0132656097412
 11
181.1466674804688
 21
-429.0132656097412
  0
LINE
  5
18C
100
AcDbEntity
  8
Unnamed [1]
  6
CONTINUOUS
 62
    3
370
    0
100
AcDbLine
 10
61.14666748046875
 20
-475.0132656097412
 11
61.14666748046875
 21
-429.0132656097412
  0
LINE
  5
18D
100
AcDbEntity
  8
Unnamed [1]
  6
CONTINUOUS
 62
    3
370
    0
100
AcDbLine
 10
61.14666748046875
 20
-475.0132656097412
 11
181.1466674804688
 21
-475.0132656097412
  0
LINE
  5
18E
100
AcDbEntity
  8
Unnamed [1]
  6
CONTINUOUS
 62
    3
370
    0
100
AcDbLine
 10
51.14666748046875
 20
-446.0132656097413
 11
51.14666748046875
 21
-412.0132656097412
  0
LINE
  5
18F
100
AcDbEntity
  8
Unnamed [1]
  6
CONTINUOUS
 62
    3
370
    0
100
AcDbLine
 10
54.14666748046875
 20
-449.0132656097412
 11
55.54666748046873
 21
-449.0132656097412
  0
LINE
  5
190
100
AcDbEntity
  8
Unnamed [1]
  6
CONTINUOUS
 62
    3
370
    0
100
AcDbLine
 10
51.14666748046875
 20
-356.0132656097412
 11
51.14666748046875
 21
-322.0132656097412
  0
LINE
  5
191
100
AcDbEntity
  8
Unnamed [1]
  6
CONTINUOUS
 62
    3
370
    0
100
AcDbLine
 10
-210.3533325195312
 20
-505.0132656097412
 11
-207.3533325195312
 21
-505.0132656097412
  0
LINE
  5
192
100
AcDbEntity
  8
Unnamed [1]
  6
CONTINUOUS
 62
    3
370
    0
100
AcDbLine
 10
-210.3533325195312
 20
-505.0132656097412
 11
-210.3533325195312
 21
-485.0132656097412
  0
LINE
  5
193
100
AcDbEntity
  8
Unnamed [1]
  6
CONTINUOUS
 62
    3
370
    0
100
AcDbLine
 10
-207.3533325195312
 20
-505.0132656097412
 11
-207.3533325195312
 21
-485.0132656097412
  0
LINE
  5
194
100
AcDbEntity
  8
Unnamed [1]
  6
CONTINUOUS
 62
    3
370
    0
100
AcDbLine
 10
-207.3533325195312
 20
-485.0132656097412
 11
-97.85333251953125
 21
-485.0132656097412
  0
LINE
  5
195
100
AcDbEntity
  8
Unnamed [1]
  6
CONTINUOUS
 62
    3
370
    0
100
AcDbLine
 10
-388.8533325195312
 20
-275.0132656097412
 11
-388.8533325195312
 21
-265.0132656097412
  0
LINE
  5
196
100
AcDbEntity
  8
Unnamed [1]
  6
CONTINUOUS
 62
    3
370
    0
100
AcDbLine
 10
211.1466674804688
 20
-235.0132656097412
 11
331.1466674804688
 21
-235.0132656097412
  0
LINE
  5
197
100
AcDbEntity
  8
Unnamed [1]
  6
CONTINUOUS
 62
    3
370
    0
100
AcDbLine
 10
201.1466674804688
 20
-412.0132656097412
 11
201.1466674804688
 21
-446.0132656097412
  0
LINE
  5
198
100
AcDbEntity
  8
Unnamed [1]
  6
CONTINUOUS
 62
    3
370
    0
100
AcDbLine
 10
211.1466674804688
 20
-475.0132656097412
 11
331.1466674804688
 21
-475.0132656097412
  0
LINE
  5
199
100
AcDbEntity
  8
Unnamed [1]
  6
CONTINUOUS
 62
    3
370
    0
100
AcDbLine
 10
204.1466674804688
 20
-359.0132656097412
 11
211.1466674804688
 21
-359.0132656097412
  0
LINE
  5
19A
100
AcDbEntity
  8
Unnamed [1]
  6
CONTINUOUS
 62
    3
370
    0
100
AcDbLine
 10
208.5466674804687
 20
-339.0132656097412
 11
211.1466674804688
 21
-339.0132656097412
  0
LINE
  5
19B
100
AcDbEntity
  8
Unnamed [1]
  6
CONTINUOUS
 62
    3
370
    0
100
AcDbLine
 10
491.1466674804688
 20
-446.0132656097411
 11
491.1466674804688
 21
-412.0132656097412
  0
LINE
  5
19C
100
AcDbEntity
  8
Unnamed [1]
  6
CONTINUOUS
 62
    3
370
    0
100
AcDbLine
 10
488.1466674804688
 20
-409.0132656097412
 11
481.1466674804688
 21
-409.0132656097412
  0
LINE
  5
19D
100
AcDbEntity
  8
Unnamed [1]
  6
CONTINUOUS
 62
    3
370
    0
100
AcDbLine
 10
204.1466674804688
 20
-449.0132656097412
 11
211.1466674804688
 21
-449.0132656097412
  0
LINE
  5
19E
100
AcDbEntity
  8
Unnamed [1]
  6
CONTINUOUS
 62
    3
370
    0
100
AcDbLine
 10
211.1466674804688
 20
-475.0132656097412
 11
211.1466674804688
 21
-449.0132656097412
  0
LINE
  5
19F
100
AcDbEntity
  8
Unnamed [1]
  6
CONTINUOUS
 62
    3
370
    0
100
AcDbLine
 10
361.1466674804688
 20
-235.0132656097412
 11
481.1466674804688
 21
-235.0132656097412
  0
LINE
  5
1A0
100
AcDbEntity
  8
Unnamed [1]
  6
CONTINUOUS
 62
    3
370
    0
100
AcDbLine
 10
361.1466674804688
 20
-475.0132656097412
 11
481.1466674804688
 21
-475.0132656097412
  0
LINE
  5
1A1
100
AcDbEntity
  8
Unnamed [1]
  6
CONTINUOUS
 62
    3
370
    0
100
AcDbLine
 10
366.1466674804688
 20
-242.0132656097412
 11
366.1466674804688
 21
-250.0132656097412
  0
LINE
  5
1A2
100
AcDbEntity
  8
Unnamed [1]
  6
CONTINUOUS
 62
    3
370
    0
100
AcDbLine
 10
476.1466674804688
 20
-242.0132656097412
 11
476.1466674804688
 21
-250.0132656097412
  0
LINE
  5
1A3
100
AcDbEntity
  8
Unnamed [1]
  6
CONTINUOUS
 62
    3
370
    0
100
AcDbLine
 10
401.1466674804688
 20
-242.0132656097412
 11
401.1466674804688
 21
-250.0132656097412
  0
LINE
  5
1A4
100
AcDbEntity
  8
Unnamed [1]
  6
CONTINUOUS
 62
    3
370
    0
100
AcDbLine
 10
376.1466674804688
 20
-242.0132656097412
 11
376.1466674804688
 21
-250.0132656097412
  0
LINE
  5
1A5
100
AcDbEntity
  8
Unnamed [1]
  6
CONTINUOUS
 62
    3
370
    0
100
AcDbLine
 10
378.6466674804688
 20
-242.0132656097412
 11
378.6466674804688
 21
-250.0132656097412
  0
LINE
  5
1A6
100
AcDbEntity
  8
Unnamed [1]
  6
CONTINUOUS
 62
    3
370
    0
100
AcDbLine
 10
388.6466674804688
 20
-242.0132656097412
 11
388.6466674804688
 21
-250.0132656097412
  0
LINE
  5
1A7
100
AcDbEntity
  8
Unnamed [1]
  6
CONTINUOUS
 62
    3
370
    0
100
AcDbLine
 10
391.1466674804688
 20
-242.0132656097412
 11
391.1466674804688
 21
-250.0132656097412
  0
LINE
  5
1A8
100
AcDbEntity
  8
Unnamed [1]
  6
CONTINUOUS
 62
    3
370
    0
100
AcDbLine
 10
403.6466674804688
 20
-242.0132656097412
 11
403.6466674804688
 21
-250.0132656097412
  0
LINE
  5
1A9
100
AcDbEntity
  8
Unnamed [1]
  6
CONTINUOUS
 62
    3
370
    0
100
AcDbLine
 10
413.6466674804688
 20
-242.0132656097412
 11
413.6466674804688
 21
-250.0132656097412
  0
LINE
  5
1AA
100
AcDbEntity
  8
Unnamed [1]
  6
CONTINUOUS
 62
    3
370
    0
100
AcDbLine
 10
466.1466674804688
 20
-242.0132656097412
 11
466.1466674804688
 21
-250.0132656097412
  0
LINE
  5
1AB
100
AcDbEntity
  8
Unnamed [1]
  6
CONTINUOUS
 62
    3
370
    0
100
AcDbLine
 10
453.6466674804688
 20
-242.0132656097412
 11
453.6466674804688
 21
-250.0132656097412
  0
LINE
  5
1AC
100
AcDbEntity
  8
Unnamed [1]
  6
CONTINUOUS
 62
    3
370
    0
100
AcDbLine
 10
463.6466674804688
 20
-242.0132656097412
 11
463.6466674804688
 21
-250.0132656097412
  0
LINE
  5
1AD
100
AcDbEntity
  8
Unnamed [1]
  6
CONTINUOUS
 62
    3
370
    0
100
AcDbLine
 10
441.1466674804688
 20
-242.0132656097412
 11
441.1466674804688
 21
-250.0132656097412
  0
LINE
  5
1AE
100
AcDbEntity
  8
Unnamed [1]
  6
CONTINUOUS
 62
    3
370
    0
100
AcDbLine
 10
451.1466674804688
 20
-242.0132656097412
 11
451.1466674804688
 21
-250.0132656097412
  0
LINE
  5
1AF
100
AcDbEntity
  8
Unnamed [1]
  6
CONTINUOUS
 62
    3
370
    0
100
AcDbLine
 10
428.6466674804688
 20
-242.0132656097412
 11
428.6466674804688
 21
-250.0132656097412
  0
LINE
  5
1B0
100
AcDbEntity
  8
Unnamed [1]
  6
CONTINUOUS
 62
    3
370
    0
100
AcDbLine
 10
438.6466674804688
 20
-242.0132656097412
 11
438.6466674804688
 21
-250.0132656097412
  0
LINE
  5
1B1
100
AcDbEntity
  8
Unnamed [1]
  6
CONTINUOUS
 62
    3
370
    0
100
AcDbLine
 10
351.1466674804688
 20
-446.0132656097413
 11
351.1466674804688
 21
-412.0132656097412
  0
LINE
  5
1B2
100
AcDbEntity
  8
Unnamed [1]
  6
CONTINUOUS
 62
    3
370
    0
100
AcDbLine
 10
361.1466674804688
 20
-409.0132656097412
 11
361.1466674804688
 21
-339.0132656097412
  0
LINE
  5
1B3
100
AcDbEntity
  8
Unnamed [1]
  6
CONTINUOUS
 62
    3
370
    0
100
AcDbLine
 10
354.1466674804688
 20
-449.0132656097412
 11
355.5466674804687
 21
-449.0132656097412
  0
LINE
  5
1B4
100
AcDbEntity
  8
Unnamed [1]
  6
CONTINUOUS
 62
    3
370
    0
100
AcDbLine
 10
358.5466674804687
 20
-339.0132656097412
 11
357.8874922065135
 21
-357.8895757125593
  0
LINE
  5
1B5
100
AcDbEntity
  8
Unnamed [1]
  6
CONTINUOUS
 62
    3
370
    0
100
AcDbLine
 10
358.5466674804687
 20
-339.0132656097412
 11
361.1466674804688
 21
-339.0132656097412
  0
LINE
  5
1B6
100
AcDbEntity
  8
Unnamed [1]
  6
CONTINUOUS
 62
    3
370
    0
100
AcDbLine
 10
488.1466674804688
 20
-359.0132656097412
 11
486.7466674804688
 21
-359.0132656097412
  0
LINE
  5
1B7
100
AcDbEntity
  8
Unnamed [1]
  6
CONTINUOUS
 62
    3
370
    0
100
AcDbLine
 10
483.7466674804688
 20
-339.0132656097412
 11
484.405842754424
 21
-357.8895757125593
  0
LINE
  5
1B8
100
AcDbEntity
  8
Unnamed [1]
  6
CONTINUOUS
 62
    3
370
    0
100
AcDbLine
 10
491.1466674804688
 20
-356.0132656097412
 11
491.1466674804688
 21
-322.0132656097412
  0
LINE
  5
1B9
100
AcDbEntity
  8
Unnamed [1]
  6
CONTINUOUS
 62
    3
370
    0
100
AcDbLine
 10
488.1466674804688
 20
-449.0132656097412
 11
486.7466674804688
 21
-449.0132656097412
  0
LINE
  5
1BA
100
AcDbEntity
  8
Unnamed [1]
  6
CONTINUOUS
 62
    3
370
    0
100
AcDbLine
 10
354.1466674804688
 20
-409.0132656097412
 11
361.1466674804688
 21
-409.0132656097412
  0
LINE
  5
1BB
100
AcDbEntity
  8
Unnamed [1]
  6
CONTINUOUS
 62
    3
370
    0
100
AcDbLine
 10
354.1466674804688
 20
-359.0132656097412
 11
355.5466674804687
 21
-359.0132656097412
  0
LINE
  5
1BC
100
AcDbEntity
  8
Unnamed [1]
  6
CONTINUOUS
 62
    3
370
    0
100
AcDbLine
 10
358.5466674804687
 20
-429.0132656097412
 11
357.8874922065135
 21
-447.8895757125595
  0
LINE
  5
1BD
100
AcDbEntity
  8
Unnamed [1]
  6
CONTINUOUS
 62
    3
370
    0
100
AcDbLine
 10
358.5466674804687
 20
-429.0132656097412
 11
361.1466674804688
 21
-429.0132656097412
  0
LINE
  5
1BE
100
AcDbEntity
  8
Unnamed [1]
  6
CONTINUOUS
 62
    3
370
    0
100
AcDbLine
 10
361.1466674804688
 20
-475.0132656097412
 11
361.1466674804688
 21
-429.0132656097412
  0
LINE
  5
1BF
100
AcDbEntity
  8
Unnamed [1]
  6
CONTINUOUS
 62
    3
370
    0
100
AcDbLine
 10
483.7466674804688
 20
-429.0132656097412
 11
481.1466674804688
 21
-429.0132656097412
  0
LINE
  5
1C0
100
AcDbEntity
  8
Unnamed [1]
  6
CONTINUOUS
 62
    3
370
    0
100
AcDbLine
 10
483.7466674804688
 20
-429.0132656097412
 11
484.405842754424
 21
-447.8895757125593
  0
LINE
  5
1C1
100
AcDbEntity
  8
Unnamed [1]
  6
CONTINUOUS
 62
    3
370
    0
100
AcDbLine
 10
481.1466674804688
 20
-475.0132656097412
 11
481.1466674804688
 21
-429.0132656097412
  0
LINE
  5
1C2
100
AcDbEntity
  8
Unnamed [1]
  6
CONTINUOUS
 62
    3
370
    0
100
AcDbLine
 10
488.1466674804688
 20
-319.0132656097412
 11
481.1466674804688
 21
-319.0132656097412
  0
LINE
  5
1C3
100
AcDbEntity
  8
Unnamed [1]
  6
CONTINUOUS
 62
    3
370
    0
100
AcDbLine
 10
354.1466674804688
 20
-319.0132656097412
 11
361.1466674804688
 21
-319.0132656097412
  0
LINE
  5
1C4
100
AcDbEntity
  8
Unnamed [1]
  6
CONTINUOUS
 62
    3
370
    0
100
AcDbLine
 10
426.1466674804688
 20
-242.0132656097412
 11
426.1466674804688
 21
-250.0132656097412
  0
LINE
  5
1C5
100
AcDbEntity
  8
Unnamed [1]
  6
CONTINUOUS
 62
    3
370
    0
100
AcDbLine
 10
416.1466674804688
 20
-242.0132656097412
 11
416.1466674804688
 21
-250.0132656097412
  0
LINE
  5
1C6
100
AcDbEntity
  8
Unnamed [1]
  6
CONTINUOUS
 62
    3
370
    0
100
AcDbLine
 10
351.1466674804688
 20
-356.0132656097412
 11
351.1466674804688
 21
-322.0132656097412
  0
LINE
  5
1C7
100
AcDbEntity
  8
Unnamed [1]
  6
CONTINUOUS
 62
    3
370
    0
100
AcDbLine
 10
361.1466674804688
 20
-319.0132656097412
 11
361.1466674804688
 21
-235.0132656097412
  0
LINE
  5
1C8
100
AcDbEntity
  8
Unnamed [1]
  6
CONTINUOUS
 62
    3
370
    0
100
AcDbLine
 10
226.1466674804688
 20
-242.0132656097412
 11
226.1466674804688
 21
-250.0132656097412
  0
LINE
  5
1C9
100
AcDbEntity
  8
Unnamed [1]
  6
CONTINUOUS
 62
    3
370
    0
100
AcDbLine
 10
278.6466674804688
 20
-242.0132656097412
 11
278.6466674804688
 21
-250.0132656097412
  0
LINE
  5
1CA
100
AcDbEntity
  8
Unnamed [1]
  6
CONTINUOUS
 62
    3
370
    0
100
AcDbLine
 10
301.1466674804688
 20
-242.0132656097412
 11
301.1466674804688
 21
-250.0132656097412
  0
LINE
  5
1CB
100
AcDbEntity
  8
Unnamed [1]
  6
CONTINUOUS
 62
    3
370
    0
100
AcDbLine
 10
313.6466674804688
 20
-242.0132656097412
 11
313.6466674804688
 21
-250.0132656097412
  0
LINE
  5
1CC
100
AcDbEntity
  8
Unnamed [1]
  6
CONTINUOUS
 62
    3
370
    0
100
AcDbLine
 10
303.6466674804688
 20
-242.0132656097412
 11
303.6466674804688
 21
-250.0132656097412
  0
LINE
  5
1CD
100
AcDbEntity
  8
Unnamed [1]
  6
CONTINUOUS
 62
    3
370
    0
100
AcDbLine
 10
316.1466674804688
 20
-242.0132656097412
 11
316.1466674804688
 21
-250.0132656097412
  0
LINE
  5
1CE
100
AcDbEntity
  8
Unnamed [1]
  6
CONTINUOUS
 62
    3
370
    0
100
AcDbLine
 10
253.6466674804688
 20
-242.0132656097412
 11
253.6466674804688
 21
-250.0132656097412
  0
LINE
  5
1CF
100
AcDbEntity
  8
Unnamed [1]
  6
CONTINUOUS
 62
    3
370
    0
100
AcDbLine
 10
251.1466674804688
 20
-242.0132656097412
 11
251.1466674804688
 21
-250.0132656097412
  0
LINE
  5
1D0
100
AcDbEntity
  8
Unnamed [1]
  6
CONTINUOUS
 62
    3
370
    0
100
AcDbLine
 10
241.1466674804688
 20
-242.0132656097412
 11
241.1466674804688
 21
-250.0132656097412
  0
LINE
  5
1D1
100
AcDbEntity
  8
Unnamed [1]
  6
CONTINUOUS
 62
    3
370
    0
100
AcDbLine
 10
238.6466674804688
 20
-242.0132656097412
 11
238.6466674804688
 21
-250.0132656097412
  0
LINE
  5
1D2
100
AcDbEntity
  8
Unnamed [1]
  6
CONTINUOUS
 62
    3
370
    0
100
AcDbLine
 10
216.1466674804688
 20
-242.0132656097412
 11
216.1466674804688
 21
-250.0132656097412
  0
LINE
  5
1D3
100
AcDbEntity
  8
Unnamed [1]
  6
CONTINUOUS
 62
    3
370
    0
100
AcDbLine
 10
263.6466674804688
 20
-242.0132656097412
 11
263.6466674804688
 21
-250.0132656097412
  0
LINE
  5
1D4
100
AcDbEntity
  8
Unnamed [1]
  6
CONTINUOUS
 62
    3
370
    0
100
AcDbLine
 10
266.1466674804688
 20
-242.0132656097412
 11
266.1466674804688
 21
-250.0132656097412
  0
LINE
  5
1D5
100
AcDbEntity
  8
Unnamed [1]
  6
CONTINUOUS
 62
    3
370
    0
100
AcDbLine
 10
276.1466674804688
 20
-242.0132656097412
 11
276.1466674804688
 21
-250.0132656097412
  0
LINE
  5
1D6
100
AcDbEntity
  8
Unnamed [1]
  6
CONTINUOUS
 62
    3
370
    0
100
AcDbLine
 10
291.1466674804688
 20
-242.0132656097412
 11
291.1466674804688
 21
-250.0132656097412
  0
LINE
  5
1D7
100
AcDbEntity
  8
Unnamed [1]
  6
CONTINUOUS
 62
    3
370
    0
100
AcDbLine
 10
288.6466674804688
 20
-242.0132656097412
 11
288.6466674804688
 21
-250.0132656097412
  0
LINE
  5
1D8
100
AcDbEntity
  8
Unnamed [1]
  6
CONTINUOUS
 62
    3
370
    0
100
AcDbLine
 10
228.6466674804688
 20
-242.0132656097412
 11
228.6466674804688
 21
-250.0132656097412
  0
LINE
  5
1D9
100
AcDbEntity
  8
Unnamed [1]
  6
CONTINUOUS
 62
    3
370
    0
100
AcDbLine
 10
201.1466674804688
 20
-322.0132656097412
 11
201.1466674804688
 21
-356.0132656097412
  0
LINE
  5
1DA
100
AcDbEntity
  8
Unnamed [1]
  6
CONTINUOUS
 62
    3
370
    0
100
AcDbLine
 10
341.1466674804688
 20
-412.0132656097412
 11
341.1466674804688
 21
-446.0132656097412
  0
LINE
  5
1DB
100
AcDbEntity
  8
Unnamed [1]
  6
CONTINUOUS
 62
    3
370
    0
100
AcDbLine
 10
208.5466674804687
 20
-429.0132656097412
 11
207.8874922065135
 21
-410.1369555069231
  0
LINE
  5
1DC
100
AcDbEntity
  8
Unnamed [1]
  6
CONTINUOUS
 62
    3
370
    0
100
AcDbLine
 10
338.1466674804688
 20
-409.0132656097412
 11
336.7466674804688
 21
-409.0132656097412
  0
LINE
  5
1DD
100
AcDbEntity
  8
Unnamed [1]
  6
CONTINUOUS
 62
    3
370
    0
100
AcDbLine
 10
208.5466674804687
 20
-429.0132656097412
 11
211.1466674804688
 21
-429.0132656097412
  0
LINE
  5
1DE
100
AcDbEntity
  8
Unnamed [1]
  6
CONTINUOUS
 62
    3
370
    0
100
AcDbLine
 10
338.1466674804688
 20
-319.0132656097412
 11
336.7466674804688
 21
-319.0132656097412
  0
LINE
  5
1DF
100
AcDbEntity
  8
Unnamed [1]
  6
CONTINUOUS
 62
    3
370
    0
100
AcDbLine
 10
204.1466674804688
 20
-319.0132656097412
 11
205.5466674804687
 21
-319.0132656097412
  0
LINE
  5
1E0
100
AcDbEntity
  8
Unnamed [1]
  6
CONTINUOUS
 62
    3
370
    0
100
AcDbLine
 10
204.1466674804688
 20
-409.0132656097412
 11
205.5466674804687
 21
-409.0132656097412
  0
LINE
  5
1E1
100
AcDbEntity
  8
Unnamed [1]
  6
CONTINUOUS
 62
    3
370
    0
100
AcDbLine
 10
331.1466674804688
 20
-475.0132656097412
 11
331.1466674804688
 21
-449.0132656097412
  0
LINE
  5
1E2
100
AcDbEntity
  8
Unnamed [1]
  6
CONTINUOUS
 62
    3
370
    0
100
AcDbLine
 10
208.5466674804687
 20
-339.0132656097412
 11
207.8874922065135
 21
-320.1369555069231
  0
LINE
  5
1E3
100
AcDbEntity
  8
Unnamed [1]
  6
CONTINUOUS
 62
    3
370
    0
100
AcDbLine
 10
333.7466674804688
 20
-339.0132656097412
 11
331.1466674804688
 21
-339.0132656097412
  0
LINE
  5
1E4
100
AcDbEntity
  8
Unnamed [1]
  6
CONTINUOUS
 62
    3
370
    0
100
AcDbLine
 10
338.1466674804688
 20
-449.0132656097412
 11
331.1466674804688
 21
-449.0132656097412
  0
LINE
  5
1E5
100
AcDbEntity
  8
Unnamed [1]
  6
CONTINUOUS
 62
    3
370
    0
100
AcDbLine
 10
333.7466674804688
 20
-429.0132656097412
 11
331.1466674804688
 21
-429.0132656097412
  0
LINE
  5
1E6
100
AcDbEntity
  8
Unnamed [1]
  6
CONTINUOUS
 62
    3
370
    0
100
AcDbLine
 10
333.7466674804688
 20
-429.0132656097412
 11
334.405842754424
 21
-410.1369555069231
  0
LINE
  5
1E7
100
AcDbEntity
  8
Unnamed [1]
  6
CONTINUOUS
 62
    3
370
    0
100
AcDbLine
 10
333.7466674804688
 20
-339.0132656097412
 11
334.405842754424
 21
-320.1369555069231
  0
LINE
  5
1E8
100
AcDbEntity
  8
Unnamed [1]
  6
CONTINUOUS
 62
    3
370
    0
100
AcDbLine
 10
481.1466674804688
 20
-319.0132656097412
 11
481.1466674804688
 21
-235.0132656097412
  0
LINE
  5
1E9
100
AcDbEntity
  8
Unnamed [1]
  6
CONTINUOUS
 62
    3
370
    0
100
AcDbLine
 10
326.1466674804688
 20
-242.0132656097412
 11
326.1466674804688
 21
-250.0132656097412
  0
LINE
  5
1EA
100
AcDbEntity
  8
Unnamed [1]
  6
CONTINUOUS
 62
    3
370
    0
100
AcDbLine
 10
-868.8533325195312
 20
-412.0132656097413
 11
-868.8533325195312
 21
-378.0132656097413
  0
LINE
  5
1EB
100
AcDbEntity
  8
Unnamed [1]
  6
CONTINUOUS
 62
    3
370
    0
100
AcDbLine
 10
-861.1041248246138
 20
-395.0132656097412
 11
-858.8533325195312
 21
-395.0132656097412
  0
LINE
  5
1EC
100
AcDbEntity
  8
Unnamed [1]
  6
CONTINUOUS
 62
    3
370
    0
100
AcDbLine
 10
-498.8533325195312
 20
-378.0132656097412
 11
-498.8533325195312
 21
-412.0132656097412
  0
LINE
  5
1ED
100
AcDbEntity
  8
Unnamed [1]
  6
CONTINUOUS
 62
    3
370
    0
100
AcDbLine
 10
-508.8533325195312
 20
-475.0132656097412
 11
-508.8533325195312
 21
-415.0132656097412
  0
LINE
  5
1EE
100
AcDbEntity
  8
Unnamed [1]
  6
CONTINUOUS
 62
    3
370
    0
100
AcDbLine
 10
-668.8533325195312
 20
-475.0132656097412
 11
-508.8533325195312
 21
-475.0132656097412
  0
LINE
  5
1EF
100
AcDbEntity
  8
Unnamed [1]
  6
CONTINUOUS
 62
    3
370
    0
100
AcDbLine
 10
-506.2533325195312
 20
-395.0132656097412
 11
-505.594157245576
 21
-376.1369555069231
  0
LINE
  5
1F0
100
AcDbEntity
  8
Unnamed [1]
  6
CONTINUOUS
 62
    3
370
    0
100
AcDbLine
 10
-508.8533325195312
 20
-395.0132656097412
 11
-508.8533325195312
 21
-325.0132656097412
  0
LINE
  5
1F1
100
AcDbEntity
  8
Unnamed [1]
  6
CONTINUOUS
 62
    3
370
    0
100
AcDbLine
 10
-634.3533325195312
 20
-443.2632656097412
 11
-634.3533325195312
 21
-466.7632656097412
  0
LINE
  5
1F2
100
AcDbEntity
  8
Unnamed [1]
  6
CONTINUOUS
 62
    3
370
    0
100
AcDbLine
 10
-637.8533325195312
 20
-443.2632656097412
 11
-637.8533325195312
 21
-466.7632656097412
  0
LINE
  5
1F3
100
AcDbEntity
  8
Unnamed [1]
  6
CONTINUOUS
 62
    3
370
    0
100
AcDbLine
 10
-647.8533325195312
 20
-443.2632656097412
 11
-647.8533325195312
 21
-466.7632656097412
  0
LINE
  5
1F4
100
AcDbEntity
  8
Unnamed [1]
  6
CONTINUOUS
 62
    3
370
    0
100
AcDbLine
 10
-729.8533325195312
 20
-443.2632656097412
 11
-729.8533325195312
 21
-466.7632656097412
  0
LINE
  5
1F5
100
AcDbEntity
  8
Unnamed [1]
  6
CONTINUOUS
 62
    3
370
    0
100
AcDbLine
 10
-506.2533325195312
 20
-395.0132656097412
 11
-508.8533325195312
 21
-395.0132656097412
  0
LINE
  5
1F6
100
AcDbEntity
  8
Unnamed [1]
  6
CONTINUOUS
 62
    3
370
    0
100
AcDbLine
 10
-675.8533325195312
 20
-325.0132656097412
 11
-668.8533325195312
 21
-325.0132656097412
  0
LINE
  5
1F7
100
AcDbEntity
  8
Unnamed [1]
  6
CONTINUOUS
 62
    3
370
    0
100
AcDbLine
 10
-506.2533325195312
 20
-305.0132656097412
 11
-505.594157245576
 21
-286.1369555069231
  0
LINE
  5
1F8
100
AcDbEntity
  8
Unnamed [1]
  6
CONTINUOUS
 62
    3
370
    0
100
AcDbLine
 10
-675.8533325195312
 20
-375.0132656097412
 11
-674.4533325195313
 21
-375.0132656097412
  0
LINE
  5
1F9
100
AcDbEntity
  8
Unnamed [1]
  6
CONTINUOUS
 62
    3
370
    0
100
AcDbLine
 10
-501.8533325195312
 20
-285.0132656097412
 11
-503.2533325195312
 21
-285.0132656097412
  0
LINE
  5
1FA
100
AcDbEntity
  8
Unnamed [1]
  6
CONTINUOUS
 62
    3
370
    0
100
AcDbLine
 10
-675.8533325195312
 20
-285.0132656097412
 11
-674.4533325195313
 21
-285.0132656097412
  0
LINE
  5
1FB
100
AcDbEntity
  8
Unnamed [1]
  6
CONTINUOUS
 62
    3
370
    0
100
AcDbLine
 10
-865.8533325195312
 20
-375.0132656097412
 11
-858.8533325195312
 21
-375.0132656097412
  0
LINE
  5
1FC
100
AcDbEntity
  8
Unnamed [1]
  6
CONTINUOUS
 62
    3
370
    0
100
AcDbLine
 10
-691.8533325195312
 20
-415.0132656097412
 11
-693.2533325195312
 21
-415.0132656097412
  0
LINE
  5
1FD
100
AcDbEntity
  8
Unnamed [1]
  6
CONTINUOUS
 62
    3
370
    0
100
AcDbLine
 10
-865.8533325195312
 20
-415.0132656097412
 11
-864.4533325195313
 21
-415.0132656097412
  0
LINE
  5
1FE
100
AcDbEntity
  8
Unnamed [1]
  6
CONTINUOUS
 62
    3
370
    0
100
AcDbLine
 10
-671.4533325195313
 20
-305.0132656097412
 11
-668.8533325195312
 21
-305.0132656097412
  0
LINE
  5
1FF
100
AcDbEntity
  8
Unnamed [1]
  6
CONTINUOUS
 62
    3
370
    0
100
AcDbLine
 10
-698.8533325195312
 20
-285.0132656097412
 11
-698.8533325195312
 21
-275.0132656097412
  0
LINE
  5
200
100
AcDbEntity
  8
Unnamed [1]
  6
CONTINUOUS
 62
    3
370
    0
100
AcDbLine
 10
-501.8533325195312
 20
-415.0132656097412
 11
-508.8533325195312
 21
-415.0132656097412
  0
LINE
  5
201
100
AcDbEntity
  8
Unnamed [1]
  6
CONTINUOUS
 62
    3
370
    0
100
AcDbLine
 10
-675.8533325195312
 20
-415.0132656097412
 11
-668.8533325195312
 21
-415.0132656097412
  0
LINE
  5
202
100
AcDbEntity
  8
Unnamed [1]
  6
CONTINUOUS
 62
    3
370
    0
100
AcDbLine
 10
-678.8533325195312
 20
-378.0132656097412
 11
-678.8533325195312
 21
-412.0132656097412
  0
LINE
  5
203
100
AcDbEntity
  8
Unnamed [1]
  6
CONTINUOUS
 62
    3
370
    0
100
AcDbLine
 10
-861.1041248246138
 20
-395.0132656097412
 11
-861.7426654850981
 21
-413.2986776948085
  0
LINE
  5
204
100
AcDbEntity
  8
Unnamed [1]
  6
CONTINUOUS
 62
    3
370
    0
100
AcDbLine
 10
-858.8533325195312
 20
-475.0132656097412
 11
-858.8533325195312
 21
-395.0132656097412
  0
LINE
  5
205
100
AcDbEntity
  8
Unnamed [1]
  6
CONTINUOUS
 62
    3
370
    0
100
AcDbLine
 10
-851.3533325195312
 20
-443.2632656097412
 11
-851.3533325195312
 21
-466.7632656097412
  0
LINE
  5
206
100
AcDbEntity
  8
Unnamed [1]
  6
CONTINUOUS
 62
    3
370
    0
100
AcDbLine
 10
-529.8533325195312
 20
-443.2632656097412
 11
-529.8533325195312
 21
-466.7632656097412
  0
LINE
  5
207
100
AcDbEntity
  8
Unnamed [1]
  6
CONTINUOUS
 62
    3
370
    0
100
AcDbLine
 10
-583.8533325195312
 20
-443.2632656097412
 11
-583.8533325195312
 21
-466.7632656097412
  0
LINE
  5
208
100
AcDbEntity
  8
Unnamed [1]
  6
CONTINUOUS
 62
    3
370
    0
100
AcDbLine
 10
-593.8533325195312
 20
-443.2632656097412
 11
-593.8533325195312
 21
-466.7632656097412
  0
LINE
  5
209
100
AcDbEntity
  8
Unnamed [1]
  6
CONTINUOUS
 62
    3
370
    0
100
AcDbLine
 10
-570.3533325195312
 20
-443.2632656097412
 11
-570.3533325195312
 21
-466.7632656097412
  0
LINE
  5
20A
100
AcDbEntity
  8
Unnamed [1]
  6
CONTINUOUS
 62
    3
370
    0
100
AcDbLine
 10
-580.3533325195312
 20
-443.2632656097412
 11
-580.3533325195312
 21
-466.7632656097412
  0
LINE
  5
20B
100
AcDbEntity
  8
Unnamed [1]
  6
CONTINUOUS
 62
    3
370
    0
100
AcDbLine
 10
-556.8533325195312
 20
-443.2632656097412
 11
-556.8533325195312
 21
-466.7632656097412
  0
LINE
  5
20C
100
AcDbEntity
  8
Unnamed [1]
  6
CONTINUOUS
 62
    3
370
    0
100
AcDbLine
 10
-566.8533325195312
 20
-443.2632656097412
 11
-566.8533325195312
 21
-466.7632656097412
  0
LINE
  5
20D
100
AcDbEntity
  8
Unnamed [1]
  6
CONTINUOUS
 62
    3
370
    0
100
AcDbLine
 10
-543.3533325195312
 20
-443.2632656097412
 11
-543.3533325195312
 21
-466.7632656097412
  0
LINE
  5
20E
100
AcDbEntity
  8
Unnamed [1]
  6
CONTINUOUS
 62
    3
370
    0
100
AcDbLine
 10
-553.3533325195312
 20
-443.2632656097412
 11
-553.3533325195312
 21
-466.7632656097412
  0
LINE
  5
20F
100
AcDbEntity
  8
Unnamed [1]
  6
CONTINUOUS
 62
    3
370
    0
100
AcDbLine
 10
-539.8533325195312
 20
-443.2632656097412
 11
-539.8533325195312
 21
-466.7632656097412
  0
LINE
  5
210
100
AcDbEntity
  8
Unnamed [1]
  6
CONTINUOUS
 62
    3
370
    0
100
AcDbLine
 10
-597.3533325195312
 20
-443.2632656097412
 11
-597.3533325195312
 21
-466.7632656097412
  0
LINE
  5
211
100
AcDbEntity
  8
Unnamed [1]
  6
CONTINUOUS
 62
    3
370
    0
100
AcDbLine
 10
-607.3533325195312
 20
-443.2632656097412
 11
-607.3533325195312
 21
-466.7632656097412
  0
LINE
  5
212
100
AcDbEntity
  8
Unnamed [1]
  6
CONTINUOUS
 62
    3
370
    0
100
AcDbLine
 10
-610.8533325195312
 20
-443.2632656097412
 11
-610.8533325195312
 21
-466.7632656097412
  0
LINE
  5
213
100
AcDbEntity
  8
Unnamed [1]
  6
CONTINUOUS
 62
    3
370
    0
100
AcDbLine
 10
-620.8533325195312
 20
-443.2632656097412
 11
-620.8533325195312
 21
-466.7632656097412
  0
LINE
  5
214
100
AcDbEntity
  8
Unnamed [1]
  6
CONTINUOUS
 62
    3
370
    0
100
AcDbLine
 10
-624.3533325195312
 20
-443.2632656097412
 11
-624.3533325195312
 21
-466.7632656097412
  0
LINE
  5
215
100
AcDbEntity
  8
Unnamed [1]
  6
CONTINUOUS
 62
    3
370
    0
100
AcDbLine
 10
-651.3533325195312
 20
-443.2632656097412
 11
-651.3533325195312
 21
-466.7632656097412
  0
LINE
  5
216
100
AcDbEntity
  8
Unnamed [1]
  6
CONTINUOUS
 62
    3
370
    0
100
AcDbLine
 10
-661.3533325195312
 20
-443.2632656097412
 11
-661.3533325195312
 21
-466.7632656097412
  0
LINE
  5
217
100
AcDbEntity
  8
Unnamed [1]
  6
CONTINUOUS
 62
    3
370
    0
100
AcDbLine
 10
-841.3533325195312
 20
-443.2632656097412
 11
-841.3533325195312
 21
-466.7632656097412
  0
LINE
  5
218
100
AcDbEntity
  8
Unnamed [1]
  6
CONTINUOUS
 62
    3
370
    0
100
AcDbLine
 10
-837.8533325195312
 20
-443.2632656097412
 11
-837.8533325195312
 21
-466.7632656097412
  0
LINE
  5
219
100
AcDbEntity
  8
Unnamed [1]
  6
CONTINUOUS
 62
    3
370
    0
100
AcDbLine
 10
-827.8533325195312
 20
-443.2632656097412
 11
-827.8533325195312
 21
-466.7632656097412
  0
LINE
  5
21A
100
AcDbEntity
  8
Unnamed [1]
  6
CONTINUOUS
 62
    3
370
    0
100
AcDbLine
 10
-824.3533325195312
 20
-443.2632656097412
 11
-824.3533325195312
 21
-466.7632656097412
  0
LINE
  5
21B
100
AcDbEntity
  8
Unnamed [1]
  6
CONTINUOUS
 62
    3
370
    0
100
AcDbLine
 10
-814.3533325195312
 20
-443.2632656097412
 11
-814.3533325195312
 21
-466.7632656097412
  0
LINE
  5
21C
100
AcDbEntity
  8
Unnamed [1]
  6
CONTINUOUS
 62
    3
370
    0
100
AcDbLine
 10
-810.8533325195312
 20
-443.2632656097412
 11
-810.8533325195312
 21
-466.7632656097412
  0
LINE
  5
21D
100
AcDbEntity
  8
Unnamed [1]
  6
CONTINUOUS
 62
    3
370
    0
100
AcDbLine
 10
-800.8533325195312
 20
-443.2632656097412
 11
-800.8533325195312
 21
-466.7632656097412
  0
LINE
  5
21E
100
AcDbEntity
  8
Unnamed [1]
  6
CONTINUOUS
 62
    3
370
    0
100
AcDbLine
 10
-787.3533325195312
 20
-443.2632656097412
 11
-787.3533325195312
 21
-466.7632656097412
  0
LINE
  5
21F
100
AcDbEntity
  8
Unnamed [1]
  6
CONTINUOUS
 62
    3
370
    0
100
AcDbLine
 10
-716.3533325195312
 20
-443.2632656097412
 11
-716.3533325195312
 21
-466.7632656097412
  0
LINE
  5
220
100
AcDbEntity
  8
Unnamed [1]
  6
CONTINUOUS
 62
    3
370
    0
100
AcDbLine
 10
-706.3533325195312
 20
-443.2632656097412
 11
-706.3533325195312
 21
-466.7632656097412
  0
LINE
  5
221
100
AcDbEntity
  8
Unnamed [1]
  6
CONTINUOUS
 62
    3
370
    0
100
AcDbLine
 10
-719.8533325195312
 20
-443.2632656097412
 11
-719.8533325195312
 21
-466.7632656097412
  0
LINE
  5
222
100
AcDbEntity
  8
Unnamed [1]
  6
CONTINUOUS
 62
    3
370
    0
100
AcDbLine
 10
-733.3533325195312
 20
-443.2632656097412
 11
-733.3533325195312
 21
-466.7632656097412
  0
LINE
  5
223
100
AcDbEntity
  8
Unnamed [1]
  6
CONTINUOUS
 62
    3
370
    0
100
AcDbLine
 10
-760.3533325195312
 20
-443.2632656097412
 11
-760.3533325195312
 21
-466.7632656097412
  0
LINE
  5
224
100
AcDbEntity
  8
Unnamed [1]
  6
CONTINUOUS
 62
    3
370
    0
100
AcDbLine
 10
-783.8533325195312
 20
-443.2632656097412
 11
-783.8533325195312
 21
-466.7632656097412
  0
LINE
  5
225
100
AcDbEntity
  8
Unnamed [1]
  6
CONTINUOUS
 62
    3
370
    0
100
AcDbLine
 10
-671.4533325195313
 20
-395.0132656097412
 11
-668.8533325195312
 21
-395.0132656097412
  0
LINE
  5
226
100
AcDbEntity
  8
Unnamed [1]
  6
CONTINUOUS
 62
    3
370
    0
100
AcDbLine
 10
-671.4533325195313
 20
-395.0132656097412
 11
-672.1125077934864
 21
-376.1369555069231
  0
LINE
  5
227
100
AcDbEntity
  8
Unnamed [1]
  6
CONTINUOUS
 62
    3
370
    0
100
AcDbLine
 10
-696.6025402144487
 20
-395.0132656097412
 11
-698.8533325195312
 21
-395.0132656097412
  0
LINE
  5
228
100
AcDbEntity
  8
Unnamed [1]
  6
CONTINUOUS
 62
    3
370
    0
100
AcDbLine
 10
-691.8533325195312
 20
-375.0132656097412
 11
-698.8533325195312
 21
-375.0132656097412
  0
LINE
  5
229
100
AcDbEntity
  8
Unnamed [1]
  6
CONTINUOUS
 62
    3
370
    0
100
AcDbLine
 10
-696.2533325195312
 20
-305.0132656097412
 11
-698.8533325195312
 21
-305.0132656097412
  0
LINE
  5
22A
100
AcDbEntity
  8
Unnamed [1]
  6
CONTINUOUS
 62
    3
370
    0
100
AcDbLine
 10
-691.8533325195312
 20
-325.0132656097412
 11
-693.2533325195312
 21
-325.0132656097412
  0
LINE
  5
22B
100
AcDbEntity
  8
Unnamed [1]
  6
CONTINUOUS
 62
    3
370
    0
100
AcDbLine
 10
-861.4533325195313
 20
-305.0132656097412
 11
-858.8533325195312
 21
-305.0132656097412
  0
LINE
  5
22C
100
AcDbEntity
  8
Unnamed [1]
  6
CONTINUOUS
 62
    3
370
    0
100
AcDbLine
 10
-858.8533325195312
 20
-375.0132656097412
 11
-858.8533325195312
 21
-305.0132656097412
  0
LINE
  5
22D
100
AcDbEntity
  8
Unnamed [1]
  6
CONTINUOUS
 62
    3
370
    0
100
AcDbLine
 10
-868.8533325195312
 20
-322.0132656097413
 11
-868.8533325195312
 21
-288.0132656097413
  0
LINE
  5
22E
100
AcDbEntity
  8
Unnamed [1]
  6
CONTINUOUS
 62
    3
370
    0
100
AcDbLine
 10
-861.4533325195313
 20
-305.0132656097412
 11
-862.1125077934867
 21
-323.8895757125594
  0
LINE
  5
22F
100
AcDbEntity
  8
Unnamed [1]
  6
CONTINUOUS
 62
    3
370
    0
100
AcDbLine
 10
-865.8533325195312
 20
-325.0132656097412
 11
-864.4533325195313
 21
-325.0132656097412
  0
LINE
  5
230
100
AcDbEntity
  8
Unnamed [1]
  6
CONTINUOUS
 62
    3
370
    0
100
AcDbLine
 10
-696.2533325195312
 20
-305.0132656097412
 11
-695.5941572455761
 21
-323.8895757125596
  0
LINE
  5
231
100
AcDbEntity
  8
Unnamed [1]
  6
CONTINUOUS
 62
    3
370
    0
100
AcDbLine
 10
-501.8533325195312
 20
-375.0132656097412
 11
-503.2533325195312
 21
-375.0132656097412
  0
LINE
  5
232
100
AcDbEntity
  8
Unnamed [1]
  6
CONTINUOUS
 62
    3
370
    0
100
AcDbLine
 10
-516.3533325195312
 20
-443.2632656097412
 11
-516.3533325195312
 21
-466.7632656097412
  0
LINE
  5
233
100
AcDbEntity
  8
Unnamed [1]
  6
CONTINUOUS
 62
    3
370
    0
100
AcDbLine
 10
-526.3533325195312
 20
-443.2632656097412
 11
-526.3533325195312
 21
-466.7632656097412
  0
LINE
  5
234
100
AcDbEntity
  8
Unnamed [1]
  6
CONTINUOUS
 62
    3
370
    0
100
AcDbLine
 10
-668.8533325195312
 20
-475.0132656097412
 11
-668.8533325195312
 21
-415.0132656097412
  0
LINE
  5
235
100
AcDbEntity
  8
Unnamed [1]
  6
CONTINUOUS
 62
    3
370
    0
100
AcDbLine
 10
-698.8533325195312
 20
-475.0132656097412
 11
-698.8533325195312
 21
-395.0132656097412
  0
LINE
  5
236
100
AcDbEntity
  8
Unnamed [1]
  6
CONTINUOUS
 62
    3
370
    0
100
AcDbLine
 10
-688.8533325195312
 20
-412.0132656097412
 11
-688.8533325195312
 21
-378.0132656097413
  0
LINE
  5
237
100
AcDbEntity
  8
Unnamed [1]
  6
CONTINUOUS
 62
    3
370
    0
100
AcDbLine
 10
-696.6025402144487
 20
-395.0132656097412
 11
-695.9639995539644
 21
-413.2986776948085
  0
LINE
  5
238
100
AcDbEntity
  8
Unnamed [1]
  6
CONTINUOUS
 62
    3
370
    0
100
AcDbLine
 10
-506.2533325195312
 20
-305.0132656097412
 11
-508.8533325195312
 21
-305.0132656097412
  0
LINE
  5
239
100
AcDbEntity
  8
Unnamed [1]
  6
CONTINUOUS
 62
    3
370
    0
100
AcDbLine
 10
-501.8533325195312
 20
-325.0132656097412
 11
-508.8533325195312
 21
-325.0132656097412
  0
LINE
  5
23A
100
AcDbEntity
  8
Unnamed [1]
  6
CONTINUOUS
 62
    3
370
    0
100
AcDbLine
 10
-858.8533325195312
 20
-275.0132656097412
 11
-788.8533325195312
 21
-275.0132656097412
  0
LINE
  5
23B
100
AcDbEntity
  8
Unnamed [1]
  6
CONTINUOUS
 62
    3
370
    0
100
AcDbLine
 10
-770.3533325195312
 20
-443.2632656097412
 11
-770.3533325195312
 21
-466.7632656097412
  0
LINE
  5
23C
100
AcDbEntity
  8
Unnamed [1]
  6
CONTINUOUS
 62
    3
370
    0
100
AcDbLine
 10
-773.8533325195312
 20
-443.2632656097412
 11
-773.8533325195312
 21
-466.7632656097412
  0
LINE
  5
23D
100
AcDbEntity
  8
Unnamed [1]
  6
CONTINUOUS
 62
    3
370
    0
100
AcDbLine
 10
-797.3533325195312
 20
-443.2632656097412
 11
-797.3533325195312
 21
-466.7632656097412
  0
LINE
  5
23E
100
AcDbEntity
  8
Unnamed [1]
  6
CONTINUOUS
 62
    3
370
    0
100
AcDbLine
 10
-768.8533325195312
 20
-275.0132656097412
 11
-768.8533325195312
 21
-265.0132656097412
  0
LINE
  5
23F
100
AcDbEntity
  8
Unnamed [1]
  6
CONTINUOUS
 62
    3
370
    0
100
AcDbLine
 10
-788.8533325195312
 20
-275.0132656097412
 11
-788.8533325195312
 21
-265.0132656097412
  0
LINE
  5
240
100
AcDbEntity
  8
Unnamed [1]
  6
CONTINUOUS
 62
    3
370
    0
100
AcDbLine
 10
-743.3533325195312
 20
-443.2632656097412
 11
-743.3533325195312
 21
-466.7632656097412
  0
LINE
  5
241
100
AcDbEntity
  8
Unnamed [1]
  6
CONTINUOUS
 62
    3
370
    0
100
AcDbLine
 10
-746.8533325195312
 20
-443.2632656097412
 11
-746.8533325195312
 21
-466.7632656097412
  0
LINE
  5
242
100
AcDbEntity
  8
Unnamed [1]
  6
CONTINUOUS
 62
    3
370
    0
100
AcDbLine
 10
-756.8533325195312
 20
-443.2632656097412
 11
-756.8533325195312
 21
-466.7632656097412
  0
LINE
  5
243
100
AcDbEntity
  8
Unnamed [1]
  6
CONTINUOUS
 62
    3
370
    0
100
AcDbLine
 10
-668.8533325195312
 20
-395.0132656097412
 11
-668.8533325195312
 21
-325.0132656097412
  0
LINE
  5
244
100
AcDbEntity
  8
Unnamed [1]
  6
CONTINUOUS
 62
    3
370
    0
100
AcDbLine
 10
-698.8533325195312
 20
-375.0132656097412
 11
-698.8533325195312
 21
-305.0132656097412
  0
LINE
  5
245
100
AcDbEntity
  8
Unnamed [1]
  6
CONTINUOUS
 62
    3
370
    0
100
AcDbLine
 10
-498.8533325195312
 20
-288.0132656097412
 11
-498.8533325195312
 21
-322.0132656097412
  0
LINE
  5
246
100
AcDbEntity
  8
Unnamed [1]
  6
CONTINUOUS
 62
    3
370
    0
100
AcDbLine
 10
-508.8533325195312
 20
-305.0132656097412
 11
-508.8533325195312
 21
-275.0132656097412
  0
LINE
  5
247
100
AcDbEntity
  8
Unnamed [1]
  6
CONTINUOUS
 62
    3
370
    0
100
AcDbLine
 10
-691.8533325195312
 20
-285.0132656097412
 11
-698.8533325195312
 21
-285.0132656097412
  0
LINE
  5
248
100
AcDbEntity
  8
Unnamed [1]
  6
CONTINUOUS
 62
    3
370
    0
100
AcDbLine
 10
-688.8533325195312
 20
-322.0132656097413
 11
-688.8533325195312
 21
-288.0132656097413
  0
LINE
  5
249
100
AcDbEntity
  8
Unnamed [1]
  6
CONTINUOUS
 62
    3
370
    0
100
AcDbLine
 10
-678.8533325195312
 20
-288.0132656097412
 11
-678.8533325195312
 21
-322.0132656097412
  0
LINE
  5
24A
100
AcDbEntity
  8
Unnamed [1]
  6
CONTINUOUS
 62
    3
370
    0
100
AcDbLine
 10
-671.4533325195313
 20
-305.0132656097412
 11
-672.1125077934864
 21
-286.1369555069231
  0
LINE
  5
24B
100
AcDbEntity
  8
Unnamed [1]
  6
CONTINUOUS
 62
    3
370
    0
100
AcDbLine
 10
-668.8533325195312
 20
-305.0132656097412
 11
-668.8533325195312
 21
-275.0132656097412
  0
LINE
  5
24C
100
AcDbEntity
  8
Unnamed [1]
  6
CONTINUOUS
 62
    3
370
    0
100
AcDbLine
 10
-668.8533325195312
 20
-275.0132656097412
 11
-598.8533325195312
 21
-275.0132656097412
  0
LINE
  5
24D
100
AcDbEntity
  8
Unnamed [1]
  6
CONTINUOUS
 62
    3
370
    0
100
AcDbLine
 10
-598.8533325195312
 20
-275.0132656097412
 11
-598.8533325195312
 21
-265.0132656097412
  0
LINE
  5
24E
100
AcDbEntity
  8
Unnamed [1]
  6
CONTINUOUS
 62
    3
370
    0
100
AcDbLine
 10
-97.85333251953125
 20
-525.0132656097412
 11
-97.85333251953125
 21
-485.0132656097412
  0
LINE
  5
24F
100
AcDbEntity
  8
Unnamed [1]
  6
CONTINUOUS
 62
    3
370
    0
100
AcDbLine
 10
-319.8533325195312
 20
-525.0132656097412
 11
-319.8533325195312
 21
-485.0132656097412
  0
LINE
  5
250
100
AcDbEntity
  8
Unnamed [1]
  6
CONTINUOUS
 62
    3
370
    0
100
AcDbLine
 10
-569.8533325195312
 20
-485.0132656097412
 11
-569.8533325195312
 21
-525.0132656097412
  0
LINE
  5
251
100
AcDbEntity
  8
Unnamed [1]
  6
CONTINUOUS
 62
    3
370
    0
100
AcDbLine
 10
-569.8533325195312
 20
-485.0132656097412
 11
-347.8533325195312
 21
-485.0132656097412
  0
LINE
  5
252
100
AcDbEntity
  8
Unnamed [1]
  6
CONTINUOUS
 62
    3
370
    0
100
AcDbLine
 10
-347.8533325195312
 20
-485.0132656097412
 11
-347.8533325195312
 21
-525.0132656097412
  0
LINE
  5
253
100
AcDbEntity
  8
Unnamed [1]
  6
CONTINUOUS
 62
    3
370
    0
100
AcDbLine
 10
-460.3533325195312
 20
-505.0132656097412
 11
-457.3533325195312
 21
-505.0132656097412
  0
LINE
  5
254
100
AcDbEntity
  8
Unnamed [1]
  6
CONTINUOUS
 62
    3
370
    0
100
AcDbLine
 10
-457.3533325195312
 20
-525.0132656097412
 11
-347.8533325195312
 21
-525.0132656097412
  0
LINE
  5
255
100
AcDbEntity
  8
Unnamed [1]
  6
CONTINUOUS
 62
    3
370
    0
100
AcDbLine
 10
-457.3533325195312
 20
-505.0132656097412
 11
-457.3533325195312
 21
-525.0132656097412
  0
LINE
  5
256
100
AcDbEntity
  8
Unnamed [1]
  6
CONTINUOUS
 62
    3
370
    0
100
AcDbLine
 10
-460.3533325195312
 20
-505.0132656097412
 11
-460.3533325195312
 21
-525.0132656097412
  0
LINE
  5
257
100
AcDbEntity
  8
Unnamed [1]
  6
CONTINUOUS
 62
    3
370
    0
100
AcDbLine
 10
211.1466674804688
 20
-339.0132656097412
 11
211.1466674804688
 21
-235.0132656097412
  0
LINE
  5
258
100
AcDbEntity
  8
Unnamed [1]
  6
CONTINUOUS
 62
    3
370
    0
100
AcDbLine
 10
331.1466674804688
 20
-339.0132656097412
 11
331.1466674804688
 21
-235.0132656097412
  0
LINE
  5
259
100
AcDbEntity
  8
Unnamed [1]
  6
CONTINUOUS
 62
    3
370
    0
100
AcDbLine
 10
481.1466674804688
 20
-409.0132656097412
 11
481.1466674804688
 21
-339.0132656097412
  0
LINE
  5
25A
100
AcDbEntity
  8
Unnamed [1]
  6
CONTINUOUS
 62
    3
370
    0
100
AcDbLine
 10
483.7466674804688
 20
-339.0132656097412
 11
481.1466674804688
 21
-339.0132656097412
  0
LINE
  5
25B
100
AcDbEntity
  8
Unnamed [1]
  6
CONTINUOUS
 62
    3
370
    0
100
AcDbLine
 10
341.1466674804688
 20
-322.0132656097412
 11
341.1466674804688
 21
-356.0132656097412
  0
LINE
  5
25C
100
AcDbEntity
  8
Unnamed [1]
  6
CONTINUOUS
 62
    3
370
    0
100
AcDbLine
 10
338.1466674804688
 20
-359.0132656097412
 11
331.1466674804688
 21
-359.0132656097412
  0
LINE
  5
25D
100
AcDbEntity
  8
Unnamed [1]
  6
CONTINUOUS
 62
    3
370
    0
100
AcDbLine
 10
331.1466674804688
 20
-429.0132656097412
 11
331.1466674804688
 21
-359.0132656097412
  0
LINE
  5
25E
100
AcDbEntity
  8
Unnamed [1]
  6
CONTINUOUS
 62
    3
370
    0
100
AcDbLine
 10
211.1466674804688
 20
-429.0132656097412
 11
211.1466674804688
 21
-359.0132656097412
  0
LINE
  5
25F
100
AcDbEntity
  8
Unnamed [1]
  6
CONTINUOUS
 62
    3
370
    0
100
AcDbLine
 10
181.1466674804688
 20
-409.0132656097412
 11
181.1466674804688
 21
-339.0132656097412
  0
LINE
  5
260
100
AcDbEntity
  8
Unnamed [1]
  6
CONTINUOUS
 62
    3
370
    0
100
AcDbLine
 10
61.14666748046875
 20
-409.0132656097412
 11
61.14666748046875
 21
-339.0132656097412
  0
LINE
  5
261
100
AcDbEntity
  8
Unnamed [1]
  6
CONTINUOUS
 62
    3
370
    0
100
AcDbLine
 10
31.14666748046875
 20
-339.0132656097412
 11
31.14666748046875
 21
-235.0132656097412
  0
LINE
  5
262
100
AcDbEntity
  8
Unnamed [1]
  6
CONTINUOUS
 62
    3
370
    0
100
AcDbLine
 10
-569.8533325195312
 20
-525.0132656097412
 11
-460.3533325195312
 21
-525.0132656097412
  0
LINE
  5
263
100
AcDbEntity
  8
Unnamed [1]
  6
CONTINUOUS
 62
    3
370
    0
100
AcDbLine
 10
-295.8533325195312
 20
-415.0132656097412
 11
-288.8533325195312
 21
-415.0132656097412
  0
LINE
  5
264
100
AcDbEntity
  8
Unnamed [1]
  6
CONTINUOUS
 62
    3
370
    0
100
AcDbLine
 10
-311.8533325195312
 20
-415.0132656097412
 11
-313.2533325195312
 21
-415.0132656097412
  0
LINE
  5
265
100
AcDbEntity
  8
Unnamed [1]
  6
CONTINUOUS
 62
    3
370
    0
100
AcDbLine
 10
-318.8533325195312
 20
-475.0132656097412
 11
-318.8533325195312
 21
-395.0132656097412
  0
LINE
  5
266
100
AcDbEntity
  8
Unnamed [1]
  6
CONTINUOUS
 62
    3
370
    0
100
AcDbLine
 10
-316.6025402144487
 20
-395.0132656097412
 11
-315.9639995539645
 21
-413.2986776948085
  0
LINE
  5
267
100
AcDbEntity
  8
Unnamed [1]
  6
CONTINUOUS
 62
    3
370
    0
100
AcDbLine
 10
-316.6025402144487
 20
-395.0132656097412
 11
-318.8533325195312
 21
-395.0132656097412
  0
LINE
  5
268
100
AcDbEntity
  8
Unnamed [1]
  6
CONTINUOUS
 62
    3
370
    0
100
AcDbLine
 10
-308.8533325195312
 20
-412.0132656097412
 11
-308.8533325195312
 21
-378.0132656097413
  0
LINE
  5
269
100
AcDbEntity
  8
Unnamed [1]
  6
CONTINUOUS
 62
    3
370
    0
100
AcDbLine
 10
-288.8533325195312
 20
-475.0132656097412
 11
-288.8533325195312
 21
-415.0132656097412
  0
LINE
  5
26A
100
AcDbEntity
  8
Unnamed [1]
  6
CONTINUOUS
 62
    3
370
    0
100
AcDbLine
 10
-288.8533325195312
 20
-475.0132656097412
 11
-128.8533325195312
 21
-475.0132656097412
  0
LINE
  5
26B
100
AcDbEntity
  8
Unnamed [1]
  6
CONTINUOUS
 62
    3
370
    0
100
AcDbLine
 10
-319.8533325195312
 20
-485.0132656097412
 11
-210.3533325195312
 21
-485.0132656097412
  0
LINE
  5
26C
100
AcDbEntity
  8
Unnamed [1]
  6
CONTINUOUS
 62
    3
370
    0
100
AcDbLine
 10
-319.8533325195312
 20
-525.0132656097412
 11
-97.85333251953122
 21
-525.0132656097412
  0
LINE
  5
26D
100
AcDbEntity
  8
Unnamed [1]
  6
CONTINUOUS
 62
    3
370
    0
100
AcDbLine
 10
-128.8533325195312
 20
-305.0132656097412
 11
-128.8533325195312
 21
-275.0132656097412
  0
ARC
  5
26E
100
AcDbEntity
  8
Unnamed [1]
  6
CONTINUOUS
 62
    3
370
    0
100
AcDbCircle
 10
21.14666748046875
 20
-242.0132656097412
 40
5
100
AcDbArc
 50
0
 51
180
  0
ARC
  5
26F
100
AcDbEntity
  8
Unnamed [1]
  6
CONTINUOUS
 62
    3
370
    0
100
AcDbCircle
 10
-277.8580120849609
 20
-103.5117803955078
 40
5
100
AcDbArc
 50
0
 51
180
  0
ARC
  5
270
100
AcDbEntity
  8
Unnamed [1]
  6
CONTINUOUS
 62
    3
370
    0
100
AcDbCircle
 10
-277.8580120849609
 20
-216.5117803955078
 40
5
100
AcDbArc
 50
180
 51
0
  0
ARC
  5
271
100
AcDbEntity
  8
Unnamed [1]
  6
CONTINUOUS
 62
    3
370
    0
100
AcDbCircle
 10
-139.8580120849609
 20
-216.5117803955078
 40
5
100
AcDbArc
 50
180
 51
0
  0
ARC
  5
272
100
AcDbEntity
  8
Unnamed [1]
  6
CONTINUOUS
 62
    3
370
    0
100
AcDbCircle
 10
-265.3580120849609
 20
-91.0117803955078
 40
5
100
AcDbArc
 50
90
 51
270
  0
ARC
  5
273
100
AcDbEntity
  8
Unnamed [1]
  6
CONTINUOUS
 62
    3
370
    0
100
AcDbCircle
 10
-265.3580120849609
 20
-229.0117803955078
 40
5
100
AcDbArc
 50
90
 51
270
  0
ARC
  5
274
100
AcDbEntity
  8
Unnamed [1]
  6
CONTINUOUS
 62
    3
370
    0
100
AcDbCircle
 10
-152.3580120849609
 20
-229.0117803955078
 40
5
100
AcDbArc
 50
270
 51
90
  0
ARC
  5
275
100
AcDbEntity
  8
Unnamed [1]
  6
CONTINUOUS
 62
    3
370
    0
100
AcDbCircle
 10
-139.8580120849609
 20
-103.5117803955078
 40
5
100
AcDbArc
 50
0
 51
180
  0
ARC
  5
276
100
AcDbEntity
  8
Unnamed [1]
  6
CONTINUOUS
 62
    3
370
    0
100
AcDbCircle
 10
-152.3580120849609
 20
-91.0117803955078
 40
5
100
AcDbArc
 50
270
 51
90
  0
ARC
  5
277
100
AcDbEntity
  8
Unnamed [1]
  6
CONTINUOUS
 62
    3
370
    0
100
AcDbCircle
 10
-121.8533325195313
 20
-288.0132656097412
 40
2.999999999999984
100
AcDbArc
 50
0
 51
90
  0
ARC
  5
278
100
AcDbEntity
  8
Unnamed [1]
  6
CONTINUOUS
 62
    3
370
    0
100
AcDbCircle
 10
-610.7977769695312
 20
-93.30215448174127
 40
7.02222222400005
100
AcDbArc
 50
342.3239639590407
 51
90
  0
ARC
  5
279
100
AcDbEntity
  8
Unnamed [1]
  6
CONTINUOUS
 62
    3
370
    0
100
AcDbCircle
 10
-607.9182382094887
 20
-94.21980566855075
 40
4
100
AcDbArc
 50
286.1599501573191
 51
342.3239639590407
  0
ARC
  5
27A
100
AcDbEntity
  8
Unnamed [1]
  6
CONTINUOUS
 62
    3
370
    0
100
AcDbCircle
 10
-588.8533325195315
 20
-160.0132656097412
 40
64.5
100
AcDbArc
 50
106.1599501573203
 51
128.7047875327954
  0
ARC
  5
27B
100
AcDbEntity
  8
Unnamed [1]
  6
CONTINUOUS
 62
    3
370
    0
100
AcDbCircle
 10
-631.6869213077223
 20
-106.5573616184685
 40
4
100
AcDbArc
 50
224.9999999999997
 51
308.7047875327945
  0
ARC
  5
27C
100
AcDbEntity
  8
Unnamed [1]
  6
CONTINUOUS
 62
    3
370
    0
100
AcDbCircle
 10
-537.0386042522989
 20
-226.7243767377413
 40
7.02222222400002
100
AcDbArc
 50
270.0000000000009
 51
45.00000000000001
  0
ARC
  5
27D
100
AcDbEntity
  8
Unnamed [1]
  6
CONTINUOUS
 62
    3
370
    0
100
AcDbCircle
 10
-522.1422213915312
 20
-108.1985373425091
 40
7.02222222400003
100
AcDbArc
 50
0
 51
134.9999999999997
  0
ARC
  5
27E
100
AcDbEntity
  8
Unnamed [1]
  6
CONTINUOUS
 62
    3
370
    0
100
AcDbCircle
 10
-655.5644436475311
 20
-211.8279938769733
 40
7.022222223999989
100
AcDbArc
 50
180
 51
315.0000000000003
  0
ARC
  5
27F
100
AcDbEntity
  8
Unnamed [1]
  6
CONTINUOUS
 62
    3
370
    0
100
AcDbCircle
 10
-522.1422213915312
 20
-211.8279938769732
 40
7.02222222400001
100
AcDbArc
 50
224.9999999999988
 51
0
  0
ARC
  5
280
100
AcDbEntity
  8
Unnamed [1]
  6
CONTINUOUS
 62
    3
370
    0
100
AcDbCircle
 10
-640.6680607867634
 20
-226.7243767377413
 40
7.02222222400001
100
AcDbArc
 50
135
 51
270
  0
ARC
  5
281
100
AcDbEntity
  8
Unnamed [1]
  6
CONTINUOUS
 62
    3
370
    0
100
AcDbCircle
 10
-535.3974285282586
 20
-117.1796768215502
 40
4
100
AcDbArc
 50
135.0000000000004
 51
218.7047875327954
  0
ARC
  5
282
100
AcDbEntity
  8
Unnamed [1]
  6
CONTINUOUS
 62
    3
370
    0
100
AcDbCircle
 10
-546.0197437313404
 20
-106.5573616184686
 40
4
100
AcDbArc
 50
231.2952124672055
 51
315.0000000000005
  0
ARC
  5
283
100
AcDbEntity
  8
Unnamed [1]
  6
CONTINUOUS
 62
    3
370
    0
100
AcDbCircle
 10
-522.1422213915312
 20
-181.9577100597411
 40
7.02222222400002
100
AcDbArc
 50
0
 51
90
  0
ARC
  5
284
100
AcDbEntity
  8
Unnamed [1]
  6
CONTINUOUS
 62
    3
370
    0
100
AcDbCircle
 10
-522.1422213915312
 20
-138.0688211597412
 40
7.02222222400001
100
AcDbArc
 50
270
 51
0
  0
ARC
  5
285
100
AcDbEntity
  8
Unnamed [1]
  6
CONTINUOUS
 62
    3
370
    0
100
AcDbCircle
 10
-523.0186949339118
 20
-141.0910433837412
 40
4
100
AcDbArc
 50
196.035734169357
 51
270
  0
ARC
  5
286
100
AcDbEntity
  8
Unnamed [1]
  6
CONTINUOUS
 62
    3
370
    0
100
AcDbCircle
 10
-523.0186949339118
 20
-178.9354878357412
 40
4
100
AcDbArc
 50
90
 51
163.964265830643
  0
ARC
  5
287
100
AcDbEntity
  8
Unnamed [1]
  6
CONTINUOUS
 62
    3
370
    0
100
AcDbCircle
 10
-535.3974285282588
 20
-202.8468543979322
 40
4
100
AcDbArc
 50
141.2952124672046
 51
224.9999999999997
  0
ARC
  5
288
100
AcDbEntity
  8
Unnamed [1]
  6
CONTINUOUS
 62
    3
370
    0
100
AcDbCircle
 10
-546.0197437313403
 20
-213.4691696010138
 40
4
100
AcDbArc
 50
44.9999999999997
 51
128.7047875327945
  0
ARC
  5
289
100
AcDbEntity
  8
Unnamed [1]
  6
CONTINUOUS
 62
    3
370
    0
100
AcDbCircle
 10
-569.7884268295738
 20
-225.8067255509316
 40
4
100
AcDbArc
 50
106.1599501573208
 51
162.3239639590359
  0
ARC
  5
28A
100
AcDbEntity
  8
Unnamed [1]
  6
CONTINUOUS
 62
    3
370
    0
100
AcDbCircle
 10
-588.8533325195315
 20
-160.0132656097412
 40
64.5
100
AcDbArc
 50
286.1599501573206
 51
308.7047875327955
  0
ARC
  5
28B
100
AcDbEntity
  8
Unnamed [1]
  6
CONTINUOUS
 62
    3
370
    0
100
AcDbCircle
 10
-566.9088880695313
 20
-226.7243767377413
 40
7.02222222400001
100
AcDbArc
 50
162.3239639590357
 51
270
  0
ARC
  5
28C
100
AcDbEntity
  8
Unnamed [1]
  6
CONTINUOUS
 62
    3
370
    0
100
AcDbCircle
 10
-607.9182382094888
 20
-225.8067255509316
 40
4
100
AcDbArc
 50
17.67603604095936
 51
73.8400498426809
  0
ARC
  5
28D
100
AcDbEntity
  8
Unnamed [1]
  6
CONTINUOUS
 62
    3
370
    0
100
AcDbCircle
 10
-610.7977769695311
 20
-226.7243767377411
 40
7.02222222400003
100
AcDbArc
 50
270
 51
17.67603604095927
  0
ARC
  5
28E
100
AcDbEntity
  8
Unnamed [1]
  6
CONTINUOUS
 62
    3
370
    0
100
AcDbCircle
 10
-631.6869213077223
 20
-213.4691696010139
 40
4
100
AcDbArc
 50
51.29521246720552
 51
135.0000000000006
  0
ARC
  5
28F
100
AcDbEntity
  8
Unnamed [1]
  6
CONTINUOUS
 62
    3
370
    0
100
AcDbCircle
 10
-588.8533325195315
 20
-160.0132656097412
 40
64.5
100
AcDbArc
 50
231.2952124672047
 51
253.8400498426797
  0
ARC
  5
290
100
AcDbEntity
  8
Unnamed [1]
  6
CONTINUOUS
 62
    3
370
    0
100
AcDbCircle
 10
-642.309236510804
 20
-202.8468543979322
 40
4
100
AcDbArc
 50
314.9999999999983
 51
38.70478753279536
  0
ARC
  5
291
100
AcDbEntity
  8
Unnamed [1]
  6
CONTINUOUS
 62
    3
370
    0
100
AcDbCircle
 10
-655.5644436475311
 20
-181.9577100597411
 40
7.022222224000029
100
AcDbArc
 50
90
 51
180
  0
ARC
  5
292
100
AcDbEntity
  8
Unnamed [1]
  6
CONTINUOUS
 62
    3
370
    0
100
AcDbCircle
 10
-654.687970105151
 20
-178.9354878357412
 40
4
100
AcDbArc
 50
16.03573416935698
 51
90
  0
ARC
  5
293
100
AcDbEntity
  8
Unnamed [1]
  6
CONTINUOUS
 62
    3
370
    0
100
AcDbCircle
 10
-588.8533325195315
 20
-160.0132656097412
 40
64.5
100
AcDbArc
 50
196.0357341693565
 51
218.7047875327953
  0
ARC
  5
294
100
AcDbEntity
  8
Unnamed [1]
  6
CONTINUOUS
 62
    3
370
    0
100
AcDbCircle
 10
-655.5644436475312
 20
-138.0688211597412
 40
7.022222223999989
100
AcDbArc
 50
180
 51
270
  0
ARC
  5
295
100
AcDbEntity
  8
Unnamed [1]
  6
CONTINUOUS
 62
    3
370
    0
100
AcDbCircle
 10
-654.687970105151
 20
-141.0910433837412
 40
4
100
AcDbArc
 50
270
 51
343.964265830643
  0
ARC
  5
296
100
AcDbEntity
  8
Unnamed [1]
  6
CONTINUOUS
 62
    3
370
    0
100
AcDbCircle
 10
-642.309236510804
 20
-117.1796768215501
 40
4
100
AcDbArc
 50
321.2952124672046
 51
44.99999999999957
  0
ARC
  5
297
100
AcDbEntity
  8
Unnamed [1]
  6
CONTINUOUS
 62
    3
370
    0
100
AcDbCircle
 10
-588.8533325195315
 20
-160.0132656097412
 40
64.5
100
AcDbArc
 50
141.2952124672045
 51
163.9642658306434
  0
ARC
  5
298
100
AcDbEntity
  8
Unnamed [1]
  6
CONTINUOUS
 62
    3
370
    0
100
AcDbCircle
 10
-588.8533325195315
 20
-160.0132656097412
 40
64.5
100
AcDbArc
 50
51.29521246720466
 51
73.84004984267936
  0
ARC
  5
299
100
AcDbEntity
  8
Unnamed [1]
  6
CONTINUOUS
 62
    3
370
    0
100
AcDbCircle
 10
-569.7884268295737
 20
-94.21980566855085
 40
4
100
AcDbArc
 50
197.6760360409631
 51
253.8400498426792
  0
ARC
  5
29A
100
AcDbEntity
  8
Unnamed [1]
  6
CONTINUOUS
 62
    3
370
    0
100
AcDbCircle
 10
-566.9088880695314
 20
-93.30215448174121
 40
7.022222223999989
100
AcDbArc
 50
90
 51
197.6760360409624
  0
ARC
  5
29B
100
AcDbEntity
  8
Unnamed [1]
  6
CONTINUOUS
 62
    3
370
    0
100
AcDbCircle
 10
-537.0386042522991
 20
-93.30215448174121
 40
7.02222222400005
100
AcDbArc
 50
314.9999999999997
 51
90
  0
ARC
  5
29C
100
AcDbEntity
  8
Unnamed [1]
  6
CONTINUOUS
 62
    3
370
    0
100
AcDbCircle
 10
-588.8533325195315
 20
-160.0132656097412
 40
64.5
100
AcDbArc
 50
321.2952124672046
 51
343.9642658306435
  0
ARC
  5
29D
100
AcDbEntity
  8
Unnamed [1]
  6
CONTINUOUS
 62
    3
370
    0
100
AcDbCircle
 10
-588.8533325195315
 20
-160.0132656097412
 40
64.5
100
AcDbArc
 50
16.03573416935661
 51
38.70478753279524
  0
ARC
  5
29E
100
AcDbEntity
  8
Unnamed [1]
  6
CONTINUOUS
 62
    3
370
    0
100
AcDbCircle
 10
-655.5644436475313
 20
-108.1985373425091
 40
7.02222222400005
100
AcDbArc
 50
45.00000000000033
 51
180
  0
ARC
  5
29F
100
AcDbEntity
  8
Unnamed [1]
  6
CONTINUOUS
 62
    3
370
    0
100
AcDbCircle
 10
-640.6680607867635
 20
-93.30215448174121
 40
7.02222222400005
100
AcDbArc
 50
90
 51
225.0000000000001
  0
ARC
  5
2A0
100
AcDbEntity
  8
Unnamed [1]
  6
CONTINUOUS
 62
    3
370
    0
100
AcDbCircle
 10
-311.8533325195314
 20
-288.0132656097412
 40
2.999999999999913
100
AcDbArc
 50
0
 51
90.00000000000109
  0
ARC
  5
2A1
100
AcDbEntity
  8
Unnamed [1]
  6
CONTINUOUS
 62
    3
370
    0
100
AcDbCircle
 10
-295.8533325195312
 20
-288.0132656097412
 40
3
100
AcDbArc
 50
90
 51
180
  0
ARC
  5
2A2
100
AcDbEntity
  8
Unnamed [1]
  6
CONTINUOUS
 62
    3
370
    0
100
AcDbCircle
 10
-485.8533325195314
 20
-322.0132656097413
 40
3.000000000000004
100
AcDbArc
 50
180
 51
270
  0
ARC
  5
2A3
100
AcDbEntity
  8
Unnamed [1]
  6
CONTINUOUS
 62
    3
370
    0
100
AcDbCircle
 10
-121.8533325195313
 20
-322.0132656097412
 40
2.999999999999984
100
AcDbArc
 50
270
 51
0
  0
ARC
  5
2A4
100
AcDbEntity
  8
Unnamed [1]
  6
CONTINUOUS
 62
    3
370
    0
100
AcDbCircle
 10
-123.2533325195312
 20
-288.0132656097412
 40
3.000000000000024
100
AcDbArc
 50
90
 51
141.2857526764903
  0
ARC
  5
2A5
100
AcDbEntity
  8
Unnamed [1]
  6
CONTINUOUS
 62
    3
370
    0
100
AcDbCircle
 10
-294.4533325195313
 20
-288.0132656097412
 40
3
100
AcDbArc
 50
38.71424732350981
 51
90
  0
ARC
  5
2A6
100
AcDbEntity
  8
Unnamed [1]
  6
CONTINUOUS
 62
    3
370
    0
100
AcDbCircle
 10
-295.8533325195312
 20
-322.0132656097412
 40
3
100
AcDbArc
 50
180
 51
270
  0
ARC
  5
2A7
100
AcDbEntity
  8
Unnamed [1]
  6
CONTINUOUS
 62
    3
370
    0
100
AcDbCircle
 10
-121.8533325195313
 20
-378.0132656097412
 40
2.999999999999984
100
AcDbArc
 50
0
 51
90
  0
ARC
  5
2A8
100
AcDbEntity
  8
Unnamed [1]
  6
CONTINUOUS
 62
    3
370
    0
100
AcDbCircle
 10
-121.8533325195313
 20
-412.0132656097412
 40
2.999999999999984
100
AcDbArc
 50
270
 51
0
  0
ARC
  5
2A9
100
AcDbEntity
  8
Unnamed [1]
  6
CONTINUOUS
 62
    3
370
    0
100
AcDbCircle
 10
-123.2533325195312
 20
-378.0132656097412
 40
3.000000000000024
100
AcDbArc
 50
90
 51
141.2857526764903
  0
ARC
  5
2AA
100
AcDbEntity
  8
Unnamed [1]
  6
CONTINUOUS
 62
    3
370
    0
100
AcDbCircle
 10
-294.4533325195313
 20
-378.0132656097412
 40
3
100
AcDbArc
 50
38.71424732350981
 51
90
  0
ARC
  5
2AB
100
AcDbEntity
  8
Unnamed [1]
  6
CONTINUOUS
 62
    3
370
    0
100
AcDbCircle
 10
-295.8533325195312
 20
-378.0132656097412
 40
3
100
AcDbArc
 50
90
 51
180
  0
ARC
  5
2AC
100
AcDbEntity
  8
Unnamed [1]
  6
CONTINUOUS
 62
    3
370
    0
100
AcDbCircle
 10
-276.3533325195312
 20
-466.7632656097412
 40
5
100
AcDbArc
 50
180
 51
0
  0
ARC
  5
2AD
100
AcDbEntity
  8
Unnamed [1]
  6
CONTINUOUS
 62
    3
370
    0
100
AcDbCircle
 10
-276.3533325195312
 20
-443.2632656097412
 40
5
100
AcDbArc
 50
0
 51
180
  0
ARC
  5
2AE
100
AcDbEntity
  8
Unnamed [1]
  6
CONTINUOUS
 62
    3
370
    0
100
AcDbCircle
 10
-262.8533325195312
 20
-466.7632656097412
 40
5
100
AcDbArc
 50
180
 51
0
  0
ARC
  5
2AF
100
AcDbEntity
  8
Unnamed [1]
  6
CONTINUOUS
 62
    3
370
    0
100
AcDbCircle
 10
-262.8533325195312
 20
-443.2632656097412
 40
5
100
AcDbArc
 50
0
 51
180
  0
ARC
  5
2B0
100
AcDbEntity
  8
Unnamed [1]
  6
CONTINUOUS
 62
    3
370
    0
100
AcDbCircle
 10
-249.3533325195312
 20
-466.7632656097412
 40
5
100
AcDbArc
 50
180
 51
0
  0
ARC
  5
2B1
100
AcDbEntity
  8
Unnamed [1]
  6
CONTINUOUS
 62
    3
370
    0
100
AcDbCircle
 10
-249.3533325195312
 20
-443.2632656097412
 40
5
100
AcDbArc
 50
0
 51
180
  0
ARC
  5
2B2
100
AcDbEntity
  8
Unnamed [1]
  6
CONTINUOUS
 62
    3
370
    0
100
AcDbCircle
 10
-235.8533325195312
 20
-466.7632656097412
 40
5
100
AcDbArc
 50
180
 51
0
  0
ARC
  5
2B3
100
AcDbEntity
  8
Unnamed [1]
  6
CONTINUOUS
 62
    3
370
    0
100
AcDbCircle
 10
-235.8533325195312
 20
-443.2632656097412
 40
5
100
AcDbArc
 50
0
 51
180
  0
ARC
  5
2B4
100
AcDbEntity
  8
Unnamed [1]
  6
CONTINUOUS
 62
    3
370
    0
100
AcDbCircle
 10
-222.3533325195312
 20
-466.7632656097412
 40
5
100
AcDbArc
 50
180
 51
0
  0
ARC
  5
2B5
100
AcDbEntity
  8
Unnamed [1]
  6
CONTINUOUS
 62
    3
370
    0
100
AcDbCircle
 10
-222.3533325195312
 20
-443.2632656097412
 40
5
100
AcDbArc
 50
0
 51
180
  0
ARC
  5
2B6
100
AcDbEntity
  8
Unnamed [1]
  6
CONTINUOUS
 62
    3
370
    0
100
AcDbCircle
 10
-141.3533325195312
 20
-466.7632656097412
 40
5
100
AcDbArc
 50
180
 51
0
  0
ARC
  5
2B7
100
AcDbEntity
  8
Unnamed [1]
  6
CONTINUOUS
 62
    3
370
    0
100
AcDbCircle
 10
-141.3533325195312
 20
-443.2632656097412
 40
5
100
AcDbArc
 50
0
 51
180
  0
ARC
  5
2B8
100
AcDbEntity
  8
Unnamed [1]
  6
CONTINUOUS
 62
    3
370
    0
100
AcDbCircle
 10
-154.8533325195312
 20
-466.7632656097412
 40
5
100
AcDbArc
 50
180
 51
0
  0
ARC
  5
2B9
100
AcDbEntity
  8
Unnamed [1]
  6
CONTINUOUS
 62
    3
370
    0
100
AcDbCircle
 10
-154.8533325195312
 20
-443.2632656097412
 40
5
100
AcDbArc
 50
0
 51
180
  0
ARC
  5
2BA
100
AcDbEntity
  8
Unnamed [1]
  6
CONTINUOUS
 62
    3
370
    0
100
AcDbCircle
 10
-168.3533325195312
 20
-466.7632656097412
 40
5
100
AcDbArc
 50
180
 51
0
  0
ARC
  5
2BB
100
AcDbEntity
  8
Unnamed [1]
  6
CONTINUOUS
 62
    3
370
    0
100
AcDbCircle
 10
-168.3533325195312
 20
-443.2632656097412
 40
5
100
AcDbArc
 50
0
 51
180
  0
ARC
  5
2BC
100
AcDbEntity
  8
Unnamed [1]
  6
CONTINUOUS
 62
    3
370
    0
100
AcDbCircle
 10
-181.8533325195312
 20
-466.7632656097412
 40
5
100
AcDbArc
 50
180
 51
0
  0
ARC
  5
2BD
100
AcDbEntity
  8
Unnamed [1]
  6
CONTINUOUS
 62
    3
370
    0
100
AcDbCircle
 10
-181.8533325195312
 20
-443.2632656097412
 40
5
100
AcDbArc
 50
0
 51
180
  0
ARC
  5
2BE
100
AcDbEntity
  8
Unnamed [1]
  6
CONTINUOUS
 62
    3
370
    0
100
AcDbCircle
 10
-195.3533325195312
 20
-466.7632656097412
 40
5
100
AcDbArc
 50
180
 51
0
  0
ARC
  5
2BF
100
AcDbEntity
  8
Unnamed [1]
  6
CONTINUOUS
 62
    3
370
    0
100
AcDbCircle
 10
-195.3533325195312
 20
-443.2632656097412
 40
5
100
AcDbArc
 50
0
 51
180
  0
ARC
  5
2C0
100
AcDbEntity
  8
Unnamed [1]
  6
CONTINUOUS
 62
    3
370
    0
100
AcDbCircle
 10
-208.8533325195312
 20
-466.7632656097412
 40
5
100
AcDbArc
 50
180
 51
0
  0
ARC
  5
2C1
100
AcDbEntity
  8
Unnamed [1]
  6
CONTINUOUS
 62
    3
370
    0
100
AcDbCircle
 10
-208.8533325195312
 20
-443.2632656097412
 40
5
100
AcDbArc
 50
0
 51
180
  0
ARC
  5
2C2
100
AcDbEntity
  8
Unnamed [1]
  6
CONTINUOUS
 62
    3
370
    0
100
AcDbCircle
 10
-78.85333251953125
 20
-250.0132656097412
 40
5
100
AcDbArc
 50
180
 51
0
  0
ARC
  5
2C3
100
AcDbEntity
  8
Unnamed [1]
  6
CONTINUOUS
 62
    3
370
    0
100
AcDbCircle
 10
-78.85333251953125
 20
-242.0132656097412
 40
5
100
AcDbArc
 50
0
 51
180
  0
ARC
  5
2C4
100
AcDbEntity
  8
Unnamed [1]
  6
CONTINUOUS
 62
    3
370
    0
100
AcDbCircle
 10
-66.35333251953125
 20
-250.0132656097412
 40
5
100
AcDbArc
 50
180
 51
0
  0
ARC
  5
2C5
100
AcDbEntity
  8
Unnamed [1]
  6
CONTINUOUS
 62
    3
370
    0
100
AcDbCircle
 10
-66.35333251953125
 20
-242.0132656097412
 40
5
100
AcDbArc
 50
0
 51
180
  0
ARC
  5
2C6
100
AcDbEntity
  8
Unnamed [1]
  6
CONTINUOUS
 62
    3
370
    0
100
AcDbCircle
 10
-53.85333251953125
 20
-250.0132656097412
 40
5
100
AcDbArc
 50
180
 51
0
  0
ARC
  5
2C7
100
AcDbEntity
  8
Unnamed [1]
  6
CONTINUOUS
 62
    3
370
    0
100
AcDbCircle
 10
-53.85333251953125
 20
-242.0132656097412
 40
5
100
AcDbArc
 50
0
 51
180
  0
ARC
  5
2C8
100
AcDbEntity
  8
Unnamed [1]
  6
CONTINUOUS
 62
    3
370
    0
100
AcDbCircle
 10
-41.35333251953125
 20
-250.0132656097412
 40
5
100
AcDbArc
 50
180
 51
0
  0
ARC
  5
2C9
100
AcDbEntity
  8
Unnamed [1]
  6
CONTINUOUS
 62
    3
370
    0
100
AcDbCircle
 10
-41.35333251953125
 20
-242.0132656097412
 40
5
100
AcDbArc
 50
0
 51
180
  0
ARC
  5
2CA
100
AcDbEntity
  8
Unnamed [1]
  6
CONTINUOUS
 62
    3
370
    0
100
AcDbCircle
 10
21.14666748046875
 20
-250.0132656097412
 40
5
100
AcDbArc
 50
180
 51
0
  0
ARC
  5
2CB
100
AcDbEntity
  8
Unnamed [1]
  6
CONTINUOUS
 62
    3
370
    0
100
AcDbCircle
 10
8.64666748046875
 20
-250.0132656097412
 40
5
100
AcDbArc
 50
180
 51
0
  0
ARC
  5
2CC
100
AcDbEntity
  8
Unnamed [1]
  6
CONTINUOUS
 62
    3
370
    0
100
AcDbCircle
 10
8.64666748046875
 20
-242.0132656097412
 40
5
100
AcDbArc
 50
0
 51
180
  0
ARC
  5
2CD
100
AcDbEntity
  8
Unnamed [1]
  6
CONTINUOUS
 62
    3
370
    0
100
AcDbCircle
 10
-3.85333251953125
 20
-250.0132656097412
 40
5
100
AcDbArc
 50
180
 51
0
  0
ARC
  5
2CE
100
AcDbEntity
  8
Unnamed [1]
  6
CONTINUOUS
 62
    3
370
    0
100
AcDbCircle
 10
-3.85333251953125
 20
-242.0132656097412
 40
5
100
AcDbArc
 50
0
 51
180
  0
ARC
  5
2CF
100
AcDbEntity
  8
Unnamed [1]
  6
CONTINUOUS
 62
    3
370
    0
100
AcDbCircle
 10
-16.35333251953125
 20
-250.0132656097412
 40
5
100
AcDbArc
 50
180
 51
0
  0
ARC
  5
2D0
100
AcDbEntity
  8
Unnamed [1]
  6
CONTINUOUS
 62
    3
370
    0
100
AcDbCircle
 10
-16.35333251953125
 20
-242.0132656097412
 40
5
100
AcDbArc
 50
0
 51
180
  0
ARC
  5
2D1
100
AcDbEntity
  8
Unnamed [1]
  6
CONTINUOUS
 62
    3
370
    0
100
AcDbCircle
 10
-28.85333251953125
 20
-242.0132656097412
 40
5
100
AcDbArc
 50
0
 51
180
  0
ARC
  5
2D2
100
AcDbEntity
  8
Unnamed [1]
  6
CONTINUOUS
 62
    3
370
    0
100
AcDbCircle
 10
-28.85333251953125
 20
-250.0132656097412
 40
5
100
AcDbArc
 50
180
 51
0
  0
ARC
  5
2D3
100
AcDbEntity
  8
Unnamed [1]
  6
CONTINUOUS
 62
    3
370
    0
100
AcDbCircle
 10
38.14666748046869
 20
-356.0132656097412
 40
2.999999999999984
100
AcDbArc
 50
270
 51
0
  0
ARC
  5
2D4
100
AcDbEntity
  8
Unnamed [1]
  6
CONTINUOUS
 62
    3
370
    0
100
AcDbCircle
 10
36.74666748046877
 20
-322.0132656097412
 40
3.000000000000024
100
AcDbArc
 50
90
 51
141.2857526764903
  0
ARC
  5
2D5
100
AcDbEntity
  8
Unnamed [1]
  6
CONTINUOUS
 62
    3
370
    0
100
AcDbCircle
 10
-94.45333251953127
 20
-322.0132656097412
 40
3
100
AcDbArc
 50
38.71424732350998
 51
90
  0
ARC
  5
2D6
100
AcDbEntity
  8
Unnamed [1]
  6
CONTINUOUS
 62
    3
370
    0
100
AcDbCircle
 10
-95.85333251953125
 20
-356.0132656097412
 40
3
100
AcDbArc
 50
180
 51
270
  0
ARC
  5
2D7
100
AcDbEntity
  8
Unnamed [1]
  6
CONTINUOUS
 62
    3
370
    0
100
AcDbCircle
 10
-95.85333251953125
 20
-322.0132656097412
 40
3
100
AcDbArc
 50
90
 51
180
  0
ARC
  5
2D8
100
AcDbEntity
  8
Unnamed [1]
  6
CONTINUOUS
 62
    3
370
    0
100
AcDbCircle
 10
-95.85333251953125
 20
-412.0132656097412
 40
3
100
AcDbArc
 50
90
 51
180
  0
ARC
  5
2D9
100
AcDbEntity
  8
Unnamed [1]
  6
CONTINUOUS
 62
    3
370
    0
100
AcDbCircle
 10
-95.85333251953125
 20
-446.0132656097412
 40
3
100
AcDbArc
 50
180
 51
270
  0
ARC
  5
2DA
100
AcDbEntity
  8
Unnamed [1]
  6
CONTINUOUS
 62
    3
370
    0
100
AcDbCircle
 10
-94.45333251953127
 20
-412.0132656097412
 40
3
100
AcDbArc
 50
38.71424732350998
 51
90
  0
ARC
  5
2DB
100
AcDbEntity
  8
Unnamed [1]
  6
CONTINUOUS
 62
    3
370
    0
100
AcDbCircle
 10
36.74666748046877
 20
-412.0132656097412
 40
3.000000000000024
100
AcDbArc
 50
90
 51
141.2857526764903
  0
ARC
  5
2DC
100
AcDbEntity
  8
Unnamed [1]
  6
CONTINUOUS
 62
    3
370
    0
100
AcDbCircle
 10
38.14666748046869
 20
-412.0132656097412
 40
2.999999999999984
100
AcDbArc
 50
0
 51
90
  0
ARC
  5
2DD
100
AcDbEntity
  8
Unnamed [1]
  6
CONTINUOUS
 62
    3
370
    0
100
AcDbCircle
 10
38.14666748046869
 20
-322.0132656097412
 40
2.999999999999984
100
AcDbArc
 50
0
 51
90
  0
ARC
  5
2DE
100
AcDbEntity
  8
Unnamed [1]
  6
CONTINUOUS
 62
    3
370
    0
100
AcDbCircle
 10
38.14666748046869
 20
-446.0132656097412
 40
2.999999999999984
100
AcDbArc
 50
270
 51
0
  0
ARC
  5
2DF
100
AcDbEntity
  8
Unnamed [1]
  6
CONTINUOUS
 62
    3
370
    0
100
AcDbCircle
 10
-485.8533325195314
 20
-412.0132656097413
 40
3.000000000000024
100
AcDbArc
 50
180
 51
270
  0
ARC
  5
2E0
100
AcDbEntity
  8
Unnamed [1]
  6
CONTINUOUS
 62
    3
370
    0
100
AcDbCircle
 10
-344.8533325195312
 20
-466.7632656097412
 40
5
100
AcDbArc
 50
180
 51
0
  0
ARC
  5
2E1
100
AcDbEntity
  8
Unnamed [1]
  6
CONTINUOUS
 62
    3
370
    0
100
AcDbCircle
 10
-311.8533325195314
 20
-322.0132656097413
 40
3.000000000000004
100
AcDbArc
 50
270
 51
0
  0
ARC
  5
2E2
100
AcDbEntity
  8
Unnamed [1]
  6
CONTINUOUS
 62
    3
370
    0
100
AcDbCircle
 10
-313.2533325195313
 20
-322.0132656097414
 40
2.999999999999964
100
AcDbArc
 50
218.7142473235105
 51
269.9999999999978
  0
ARC
  5
2E3
100
AcDbEntity
  8
Unnamed [1]
  6
CONTINUOUS
 62
    3
370
    0
100
AcDbCircle
 10
-484.4533325195314
 20
-322.0132656097412
 40
3.000000000000004
100
AcDbArc
 50
270
 51
321.2857526764887
  0
ARC
  5
2E4
100
AcDbEntity
  8
Unnamed [1]
  6
CONTINUOUS
 62
    3
370
    0
100
AcDbCircle
 10
-485.8533325195312
 20
-288.0132656097413
 40
3.000000000000024
100
AcDbArc
 50
90
 51
180
  0
ARC
  5
2E5
100
AcDbEntity
  8
Unnamed [1]
  6
CONTINUOUS
 62
    3
370
    0
100
AcDbCircle
 10
-311.8533325195314
 20
-378.0132656097413
 40
2.999999999999994
100
AcDbArc
 50
0
 51
89.99999999999892
  0
ARC
  5
2E6
100
AcDbEntity
  8
Unnamed [1]
  6
CONTINUOUS
 62
    3
370
    0
100
AcDbCircle
 10
-313.2533325195313
 20
-412.0132656097413
 40
3.000000000000004
100
AcDbArc
 50
205.37054569545
 51
270
  0
ARC
  5
2E7
100
AcDbEntity
  8
Unnamed [1]
  6
CONTINUOUS
 62
    3
370
    0
100
AcDbCircle
 10
-484.4533325195313
 20
-412.0132656097413
 40
2.999999999999964
100
AcDbArc
 50
270
 51
334.6294543045495
  0
ARC
  5
2E8
100
AcDbEntity
  8
Unnamed [1]
  6
CONTINUOUS
 62
    3
370
    0
100
AcDbCircle
 10
-485.8533325195314
 20
-378.0132656097413
 40
3.000000000000024
100
AcDbArc
 50
90
 51
180
  0
ARC
  5
2E9
100
AcDbEntity
  8
Unnamed [1]
  6
CONTINUOUS
 62
    3
370
    0
100
AcDbCircle
 10
-466.3533325195312
 20
-466.7632656097412
 40
5
100
AcDbArc
 50
180
 51
0
  0
ARC
  5
2EA
100
AcDbEntity
  8
Unnamed [1]
  6
CONTINUOUS
 62
    3
370
    0
100
AcDbCircle
 10
-466.3533325195312
 20
-443.2632656097412
 40
5
100
AcDbArc
 50
0
 51
180
  0
ARC
  5
2EB
100
AcDbEntity
  8
Unnamed [1]
  6
CONTINUOUS
 62
    3
370
    0
100
AcDbCircle
 10
-452.8533325195312
 20
-466.7632656097412
 40
5
100
AcDbArc
 50
180
 51
0
  0
ARC
  5
2EC
100
AcDbEntity
  8
Unnamed [1]
  6
CONTINUOUS
 62
    3
370
    0
100
AcDbCircle
 10
-452.8533325195312
 20
-443.2632656097412
 40
5
100
AcDbArc
 50
0
 51
180
  0
ARC
  5
2ED
100
AcDbEntity
  8
Unnamed [1]
  6
CONTINUOUS
 62
    3
370
    0
100
AcDbCircle
 10
-439.3533325195312
 20
-466.7632656097412
 40
5
100
AcDbArc
 50
180
 51
0
  0
ARC
  5
2EE
100
AcDbEntity
  8
Unnamed [1]
  6
CONTINUOUS
 62
    3
370
    0
100
AcDbCircle
 10
-439.3533325195312
 20
-443.2632656097412
 40
5
100
AcDbArc
 50
0
 51
180
  0
ARC
  5
2EF
100
AcDbEntity
  8
Unnamed [1]
  6
CONTINUOUS
 62
    3
370
    0
100
AcDbCircle
 10
-425.8533325195312
 20
-466.7632656097412
 40
5
100
AcDbArc
 50
180
 51
0
  0
ARC
  5
2F0
100
AcDbEntity
  8
Unnamed [1]
  6
CONTINUOUS
 62
    3
370
    0
100
AcDbCircle
 10
-425.8533325195312
 20
-443.2632656097412
 40
5
100
AcDbArc
 50
0
 51
180
  0
ARC
  5
2F1
100
AcDbEntity
  8
Unnamed [1]
  6
CONTINUOUS
 62
    3
370
    0
100
AcDbCircle
 10
-412.3533325195312
 20
-466.7632656097412
 40
5
100
AcDbArc
 50
180
 51
0
  0
ARC
  5
2F2
100
AcDbEntity
  8
Unnamed [1]
  6
CONTINUOUS
 62
    3
370
    0
100
AcDbCircle
 10
-412.3533325195312
 20
-443.2632656097412
 40
5
100
AcDbArc
 50
0
 51
180
  0
ARC
  5
2F3
100
AcDbEntity
  8
Unnamed [1]
  6
CONTINUOUS
 62
    3
370
    0
100
AcDbCircle
 10
-331.3533325195312
 20
-466.7632656097412
 40
5
100
AcDbArc
 50
180
 51
0
  0
ARC
  5
2F4
100
AcDbEntity
  8
Unnamed [1]
  6
CONTINUOUS
 62
    3
370
    0
100
AcDbCircle
 10
-331.3533325195312
 20
-443.2632656097412
 40
5
100
AcDbArc
 50
0
 51
180
  0
ARC
  5
2F5
100
AcDbEntity
  8
Unnamed [1]
  6
CONTINUOUS
 62
    3
370
    0
100
AcDbCircle
 10
-344.8533325195312
 20
-443.2632656097412
 40
5
100
AcDbArc
 50
0
 51
180
  0
ARC
  5
2F6
100
AcDbEntity
  8
Unnamed [1]
  6
CONTINUOUS
 62
    3
370
    0
100
AcDbCircle
 10
-358.3533325195312
 20
-466.7632656097412
 40
5
100
AcDbArc
 50
180
 51
0
  0
ARC
  5
2F7
100
AcDbEntity
  8
Unnamed [1]
  6
CONTINUOUS
 62
    3
370
    0
100
AcDbCircle
 10
-358.3533325195312
 20
-443.2632656097412
 40
5
100
AcDbArc
 50
0
 51
180
  0
ARC
  5
2F8
100
AcDbEntity
  8
Unnamed [1]
  6
CONTINUOUS
 62
    3
370
    0
100
AcDbCircle
 10
-371.8533325195312
 20
-466.7632656097412
 40
5
100
AcDbArc
 50
180
 51
0
  0
ARC
  5
2F9
100
AcDbEntity
  8
Unnamed [1]
  6
CONTINUOUS
 62
    3
370
    0
100
AcDbCircle
 10
-371.8533325195312
 20
-443.2632656097412
 40
5
100
AcDbArc
 50
0
 51
180
  0
ARC
  5
2FA
100
AcDbEntity
  8
Unnamed [1]
  6
CONTINUOUS
 62
    3
370
    0
100
AcDbCircle
 10
-385.3533325195312
 20
-466.7632656097412
 40
5
100
AcDbArc
 50
180
 51
0
  0
ARC
  5
2FB
100
AcDbEntity
  8
Unnamed [1]
  6
CONTINUOUS
 62
    3
370
    0
100
AcDbCircle
 10
-385.3533325195312
 20
-443.2632656097412
 40
5
100
AcDbArc
 50
0
 51
180
  0
ARC
  5
2FC
100
AcDbEntity
  8
Unnamed [1]
  6
CONTINUOUS
 62
    3
370
    0
100
AcDbCircle
 10
-398.8533325195312
 20
-466.7632656097412
 40
5
100
AcDbArc
 50
180
 51
0
  0
ARC
  5
2FD
100
AcDbEntity
  8
Unnamed [1]
  6
CONTINUOUS
 62
    3
370
    0
100
AcDbCircle
 10
-398.8533325195312
 20
-443.2632656097412
 40
5
100
AcDbArc
 50
0
 51
180
  0
ARC
  5
2FE
100
AcDbEntity
  8
Unnamed [1]
  6
CONTINUOUS
 62
    3
370
    0
100
AcDbCircle
 10
71.14666748046875
 20
-250.0132656097412
 40
5
100
AcDbArc
 50
180
 51
0
  0
ARC
  5
2FF
100
AcDbEntity
  8
Unnamed [1]
  6
CONTINUOUS
 62
    3
370
    0
100
AcDbCircle
 10
71.14666748046875
 20
-242.0132656097412
 40
5
100
AcDbArc
 50
0
 51
180
  0
ARC
  5
300
100
AcDbEntity
  8
Unnamed [1]
  6
CONTINUOUS
 62
    3
370
    0
100
AcDbCircle
 10
83.64666748046875
 20
-250.0132656097412
 40
5
100
AcDbArc
 50
180
 51
0
  0
ARC
  5
301
100
AcDbEntity
  8
Unnamed [1]
  6
CONTINUOUS
 62
    3
370
    0
100
AcDbCircle
 10
83.64666748046875
 20
-242.0132656097412
 40
5
100
AcDbArc
 50
0
 51
180
  0
ARC
  5
302
100
AcDbEntity
  8
Unnamed [1]
  6
CONTINUOUS
 62
    3
370
    0
100
AcDbCircle
 10
96.14666748046875
 20
-250.0132656097412
 40
5
100
AcDbArc
 50
180
 51
0
  0
ARC
  5
303
100
AcDbEntity
  8
Unnamed [1]
  6
CONTINUOUS
 62
    3
370
    0
100
AcDbCircle
 10
96.14666748046875
 20
-242.0132656097412
 40
5
100
AcDbArc
 50
0
 51
180
  0
ARC
  5
304
100
AcDbEntity
  8
Unnamed [1]
  6
CONTINUOUS
 62
    3
370
    0
100
AcDbCircle
 10
108.6466674804688
 20
-250.0132656097412
 40
5
100
AcDbArc
 50
180
 51
0
  0
ARC
  5
305
100
AcDbEntity
  8
Unnamed [1]
  6
CONTINUOUS
 62
    3
370
    0
100
AcDbCircle
 10
108.6466674804688
 20
-242.0132656097412
 40
5
100
AcDbArc
 50
0
 51
180
  0
ARC
  5
306
100
AcDbEntity
  8
Unnamed [1]
  6
CONTINUOUS
 62
    3
370
    0
100
AcDbCircle
 10
171.1466674804688
 20
-250.0132656097412
 40
5
100
AcDbArc
 50
180
 51
0
  0
ARC
  5
307
100
AcDbEntity
  8
Unnamed [1]
  6
CONTINUOUS
 62
    3
370
    0
100
AcDbCircle
 10
171.1466674804688
 20
-242.0132656097412
 40
5
100
AcDbArc
 50
0
 51
180
  0
ARC
  5
308
100
AcDbEntity
  8
Unnamed [1]
  6
CONTINUOUS
 62
    3
370
    0
100
AcDbCircle
 10
158.6466674804688
 20
-250.0132656097412
 40
5
100
AcDbArc
 50
180
 51
0
  0
ARC
  5
309
100
AcDbEntity
  8
Unnamed [1]
  6
CONTINUOUS
 62
    3
370
    0
100
AcDbCircle
 10
158.6466674804688
 20
-242.0132656097412
 40
5
100
AcDbArc
 50
0
 51
180
  0
ARC
  5
30A
100
AcDbEntity
  8
Unnamed [1]
  6
CONTINUOUS
 62
    3
370
    0
100
AcDbCircle
 10
146.1466674804688
 20
-250.0132656097412
 40
5
100
AcDbArc
 50
180
 51
0
  0
ARC
  5
30B
100
AcDbEntity
  8
Unnamed [1]
  6
CONTINUOUS
 62
    3
370
    0
100
AcDbCircle
 10
146.1466674804688
 20
-242.0132656097412
 40
5
100
AcDbArc
 50
0
 51
180
  0
ARC
  5
30C
100
AcDbEntity
  8
Unnamed [1]
  6
CONTINUOUS
 62
    3
370
    0
100
AcDbCircle
 10
133.6466674804688
 20
-250.0132656097412
 40
5
100
AcDbArc
 50
180
 51
0
  0
ARC
  5
30D
100
AcDbEntity
  8
Unnamed [1]
  6
CONTINUOUS
 62
    3
370
    0
100
AcDbCircle
 10
133.6466674804688
 20
-242.0132656097412
 40
5
100
AcDbArc
 50
0
 51
180
  0
ARC
  5
30E
100
AcDbEntity
  8
Unnamed [1]
  6
CONTINUOUS
 62
    3
370
    0
100
AcDbCircle
 10
121.1466674804688
 20
-242.0132656097412
 40
5
100
AcDbArc
 50
0
 51
180
  0
ARC
  5
30F
100
AcDbEntity
  8
Unnamed [1]
  6
CONTINUOUS
 62
    3
370
    0
100
AcDbCircle
 10
121.1466674804688
 20
-250.0132656097412
 40
5
100
AcDbArc
 50
180
 51
0
  0
ARC
  5
310
100
AcDbEntity
  8
Unnamed [1]
  6
CONTINUOUS
 62
    3
370
    0
100
AcDbCircle
 10
188.1466674804687
 20
-322.0132656097412
 40
3.000000000000014
100
AcDbArc
 50
0
 51
90.00000000000054
  0
ARC
  5
311
100
AcDbEntity
  8
Unnamed [1]
  6
CONTINUOUS
 62
    3
370
    0
100
AcDbCircle
 10
186.7466674804688
 20
-356.0132656097412
 40
3.000000000000014
100
AcDbArc
 50
218.7142473235098
 51
270
  0
ARC
  5
312
100
AcDbEntity
  8
Unnamed [1]
  6
CONTINUOUS
 62
    3
370
    0
100
AcDbCircle
 10
55.54666748046873
 20
-356.0132656097413
 40
2.999999999999984
100
AcDbArc
 50
270
 51
321.2857526764898
  0
ARC
  5
313
100
AcDbEntity
  8
Unnamed [1]
  6
CONTINUOUS
 62
    3
370
    0
100
AcDbCircle
 10
55.54666748046876
 20
-446.0132656097413
 40
2.999999999999984
100
AcDbArc
 50
270
 51
321.2857526764898
  0
ARC
  5
314
100
AcDbEntity
  8
Unnamed [1]
  6
CONTINUOUS
 62
    3
370
    0
100
AcDbCircle
 10
186.7466674804687
 20
-446.0132656097412
 40
3.000000000000004
100
AcDbArc
 50
218.7142473235098
 51
270.0000000000016
  0
ARC
  5
315
100
AcDbEntity
  8
Unnamed [1]
  6
CONTINUOUS
 62
    3
370
    0
100
AcDbCircle
 10
188.1466674804687
 20
-446.0132656097411
 40
2.999999999999994
100
AcDbArc
 50
270.0000000000006
 51
0
  0
ARC
  5
316
100
AcDbEntity
  8
Unnamed [1]
  6
CONTINUOUS
 62
    3
370
    0
100
AcDbCircle
 10
188.1466674804687
 20
-356.0132656097412
 40
3.000000000000004
100
AcDbArc
 50
270.0000000000006
 51
0
  0
ARC
  5
317
100
AcDbEntity
  8
Unnamed [1]
  6
CONTINUOUS
 62
    3
370
    0
100
AcDbCircle
 10
188.1466674804686
 20
-412.0132656097412
 40
2.999999999999974
100
AcDbArc
 50
0
 51
89.99999999999946
  0
ARC
  5
318
100
AcDbEntity
  8
Unnamed [1]
  6
CONTINUOUS
 62
    3
370
    0
100
AcDbCircle
 10
54.14666748046875
 20
-446.0132656097413
 40
3.000000000000024
100
AcDbArc
 50
180
 51
270
  0
ARC
  5
319
100
AcDbEntity
  8
Unnamed [1]
  6
CONTINUOUS
 62
    3
370
    0
100
AcDbCircle
 10
54.14666748046874
 20
-412.0132656097412
 40
2.999999999999944
100
AcDbArc
 50
90
 51
180
  0
ARC
  5
31A
100
AcDbEntity
  8
Unnamed [1]
  6
CONTINUOUS
 62
    3
370
    0
100
AcDbCircle
 10
54.14666748046879
 20
-322.0132656097412
 40
2.999999999999974
100
AcDbArc
 50
90.00000000000095
 51
180
  0
ARC
  5
31B
100
AcDbEntity
  8
Unnamed [1]
  6
CONTINUOUS
 62
    3
370
    0
100
AcDbCircle
 10
54.14666748046874
 20
-356.0132656097412
 40
2.999999999999984
100
AcDbArc
 50
180
 51
269.9999999999992
  0
ARC
  5
31C
100
AcDbEntity
  8
Unnamed [1]
  6
CONTINUOUS
 62
    3
370
    0
100
AcDbCircle
 10
204.1466674804688
 20
-412.0132656097412
 40
3
100
AcDbArc
 50
90
 51
180
  0
ARC
  5
31D
100
AcDbEntity
  8
Unnamed [1]
  6
CONTINUOUS
 62
    3
370
    0
100
AcDbCircle
 10
488.1466674804686
 20
-412.0132656097412
 40
2.999999999999974
100
AcDbArc
 50
0
 51
90
  0
ARC
  5
31E
100
AcDbEntity
  8
Unnamed [1]
  6
CONTINUOUS
 62
    3
370
    0
100
AcDbCircle
 10
204.1466674804688
 20
-446.0132656097412
 40
3
100
AcDbArc
 50
180
 51
270
  0
ARC
  5
31F
100
AcDbEntity
  8
Unnamed [1]
  6
CONTINUOUS
 62
    3
370
    0
100
AcDbCircle
 10
371.1466674804688
 20
-242.0132656097412
 40
5
100
AcDbArc
 50
0
 51
180
  0
ARC
  5
320
100
AcDbEntity
  8
Unnamed [1]
  6
CONTINUOUS
 62
    3
370
    0
100
AcDbCircle
 10
446.1466674804688
 20
-250.0132656097412
 40
5
100
AcDbArc
 50
180
 51
0
  0
ARC
  5
321
100
AcDbEntity
  8
Unnamed [1]
  6
CONTINUOUS
 62
    3
370
    0
100
AcDbCircle
 10
396.1466674804688
 20
-242.0132656097412
 40
5
100
AcDbArc
 50
0
 51
180
  0
ARC
  5
322
100
AcDbEntity
  8
Unnamed [1]
  6
CONTINUOUS
 62
    3
370
    0
100
AcDbCircle
 10
408.6466674804688
 20
-242.0132656097412
 40
5
100
AcDbArc
 50
0
 51
180
  0
ARC
  5
323
100
AcDbEntity
  8
Unnamed [1]
  6
CONTINUOUS
 62
    3
370
    0
100
AcDbCircle
 10
471.1466674804688
 20
-250.0132656097412
 40
5
100
AcDbArc
 50
180
 51
0
  0
ARC
  5
324
100
AcDbEntity
  8
Unnamed [1]
  6
CONTINUOUS
 62
    3
370
    0
100
AcDbCircle
 10
471.1466674804688
 20
-242.0132656097412
 40
5
100
AcDbArc
 50
0
 51
180
  0
ARC
  5
325
100
AcDbEntity
  8
Unnamed [1]
  6
CONTINUOUS
 62
    3
370
    0
100
AcDbCircle
 10
458.6466674804688
 20
-250.0132656097412
 40
5
100
AcDbArc
 50
180
 51
0
  0
ARC
  5
326
100
AcDbEntity
  8
Unnamed [1]
  6
CONTINUOUS
 62
    3
370
    0
100
AcDbCircle
 10
458.6466674804688
 20
-242.0132656097412
 40
5
100
AcDbArc
 50
0
 51
180
  0
ARC
  5
327
100
AcDbEntity
  8
Unnamed [1]
  6
CONTINUOUS
 62
    3
370
    0
100
AcDbCircle
 10
446.1466674804688
 20
-242.0132656097412
 40
5
100
AcDbArc
 50
0
 51
180
  0
ARC
  5
328
100
AcDbEntity
  8
Unnamed [1]
  6
CONTINUOUS
 62
    3
370
    0
100
AcDbCircle
 10
433.6466674804688
 20
-250.0132656097412
 40
5
100
AcDbArc
 50
180
 51
0
  0
ARC
  5
329
100
AcDbEntity
  8
Unnamed [1]
  6
CONTINUOUS
 62
    3
370
    0
100
AcDbCircle
 10
433.6466674804688
 20
-242.0132656097412
 40
5
100
AcDbArc
 50
0
 51
180
  0
ARC
  5
32A
100
AcDbEntity
  8
Unnamed [1]
  6
CONTINUOUS
 62
    3
370
    0
100
AcDbCircle
 10
421.1466674804688
 20
-250.0132656097412
 40
5
100
AcDbArc
 50
180
 51
0
  0
ARC
  5
32B
100
AcDbEntity
  8
Unnamed [1]
  6
CONTINUOUS
 62
    3
370
    0
100
AcDbCircle
 10
408.6466674804688
 20
-250.0132656097412
 40
5
100
AcDbArc
 50
180
 51
0
  0
ARC
  5
32C
100
AcDbEntity
  8
Unnamed [1]
  6
CONTINUOUS
 62
    3
370
    0
100
AcDbCircle
 10
371.1466674804688
 20
-250.0132656097412
 40
5
100
AcDbArc
 50
180
 51
0
  0
ARC
  5
32D
100
AcDbEntity
  8
Unnamed [1]
  6
CONTINUOUS
 62
    3
370
    0
100
AcDbCircle
 10
383.6466674804688
 20
-250.0132656097412
 40
5
100
AcDbArc
 50
180
 51
0
  0
ARC
  5
32E
100
AcDbEntity
  8
Unnamed [1]
  6
CONTINUOUS
 62
    3
370
    0
100
AcDbCircle
 10
396.1466674804688
 20
-250.0132656097412
 40
5
100
AcDbArc
 50
180
 51
0
  0
ARC
  5
32F
100
AcDbEntity
  8
Unnamed [1]
  6
CONTINUOUS
 62
    3
370
    0
100
AcDbCircle
 10
488.1466674804687
 20
-356.0132656097412
 40
3.000000000000004
100
AcDbArc
 50
270.0000000000011
 51
0
  0
ARC
  5
330
100
AcDbEntity
  8
Unnamed [1]
  6
CONTINUOUS
 62
    3
370
    0
100
AcDbCircle
 10
354.1466674804688
 20
-446.0132656097413
 40
3.000000000000024
100
AcDbArc
 50
180
 51
270
  0
ARC
  5
331
100
AcDbEntity
  8
Unnamed [1]
  6
CONTINUOUS
 62
    3
370
    0
100
AcDbCircle
 10
355.5466674804687
 20
-446.0132656097413
 40
2.999999999999984
100
AcDbArc
 50
270
 51
321.2857526764895
  0
ARC
  5
332
100
AcDbEntity
  8
Unnamed [1]
  6
CONTINUOUS
 62
    3
370
    0
100
AcDbCircle
 10
354.1466674804688
 20
-322.0132656097412
 40
2.999999999999974
100
AcDbArc
 50
90.00000000000109
 51
180
  0
ARC
  5
333
100
AcDbEntity
  8
Unnamed [1]
  6
CONTINUOUS
 62
    3
370
    0
100
AcDbCircle
 10
488.1466674804687
 20
-322.0132656097412
 40
3.000000000000014
100
AcDbArc
 50
0
 51
90
  0
ARC
  5
334
100
AcDbEntity
  8
Unnamed [1]
  6
CONTINUOUS
 62
    3
370
    0
100
AcDbCircle
 10
354.1466674804688
 20
-412.0132656097412
 40
2.999999999999944
100
AcDbArc
 50
90
 51
180
  0
ARC
  5
335
100
AcDbEntity
  8
Unnamed [1]
  6
CONTINUOUS
 62
    3
370
    0
100
AcDbCircle
 10
355.5466674804687
 20
-356.0132656097413
 40
2.999999999999984
100
AcDbArc
 50
270
 51
321.2857526764902
  0
ARC
  5
336
100
AcDbEntity
  8
Unnamed [1]
  6
CONTINUOUS
 62
    3
370
    0
100
AcDbCircle
 10
486.7466674804688
 20
-356.0132656097412
 40
3.000000000000014
100
AcDbArc
 50
218.7142473235098
 51
270
  0
ARC
  5
337
100
AcDbEntity
  8
Unnamed [1]
  6
CONTINUOUS
 62
    3
370
    0
100
AcDbCircle
 10
486.7466674804688
 20
-446.0132656097412
 40
3.000000000000004
100
AcDbArc
 50
218.7142473235098
 51
270.0000000000011
  0
ARC
  5
338
100
AcDbEntity
  8
Unnamed [1]
  6
CONTINUOUS
 62
    3
370
    0
100
AcDbCircle
 10
488.1466674804687
 20
-446.0132656097411
 40
2.999999999999994
100
AcDbArc
 50
270.0000000000011
 51
0
  0
ARC
  5
339
100
AcDbEntity
  8
Unnamed [1]
  6
CONTINUOUS
 62
    3
370
    0
100
AcDbCircle
 10
354.1466674804688
 20
-356.0132656097412
 40
2.999999999999984
100
AcDbArc
 50
180
 51
269.9999999999989
  0
ARC
  5
33A
100
AcDbEntity
  8
Unnamed [1]
  6
CONTINUOUS
 62
    3
370
    0
100
AcDbCircle
 10
296.1466674804688
 20
-250.0132656097412
 40
5
100
AcDbArc
 50
180
 51
0
  0
ARC
  5
33B
100
AcDbEntity
  8
Unnamed [1]
  6
CONTINUOUS
 62
    3
370
    0
100
AcDbCircle
 10
308.6466674804688
 20
-250.0132656097412
 40
5
100
AcDbArc
 50
180
 51
0
  0
ARC
  5
33C
100
AcDbEntity
  8
Unnamed [1]
  6
CONTINUOUS
 62
    3
370
    0
100
AcDbCircle
 10
321.1466674804688
 20
-242.0132656097412
 40
5
100
AcDbArc
 50
0
 51
180
  0
ARC
  5
33D
100
AcDbEntity
  8
Unnamed [1]
  6
CONTINUOUS
 62
    3
370
    0
100
AcDbCircle
 10
258.6466674804688
 20
-242.0132656097412
 40
5
100
AcDbArc
 50
0
 51
180
  0
ARC
  5
33E
100
AcDbEntity
  8
Unnamed [1]
  6
CONTINUOUS
 62
    3
370
    0
100
AcDbCircle
 10
246.1466674804688
 20
-242.0132656097412
 40
5
100
AcDbArc
 50
0
 51
180
  0
ARC
  5
33F
100
AcDbEntity
  8
Unnamed [1]
  6
CONTINUOUS
 62
    3
370
    0
100
AcDbCircle
 10
246.1466674804688
 20
-250.0132656097412
 40
5
100
AcDbArc
 50
180
 51
0
  0
ARC
  5
340
100
AcDbEntity
  8
Unnamed [1]
  6
CONTINUOUS
 62
    3
370
    0
100
AcDbCircle
 10
233.6466674804688
 20
-242.0132656097412
 40
5
100
AcDbArc
 50
0
 51
180
  0
ARC
  5
341
100
AcDbEntity
  8
Unnamed [1]
  6
CONTINUOUS
 62
    3
370
    0
100
AcDbCircle
 10
271.1466674804688
 20
-242.0132656097412
 40
5
100
AcDbArc
 50
0
 51
180
  0
ARC
  5
342
100
AcDbEntity
  8
Unnamed [1]
  6
CONTINUOUS
 62
    3
370
    0
100
AcDbCircle
 10
258.6466674804688
 20
-250.0132656097412
 40
5
100
AcDbArc
 50
180
 51
0
  0
ARC
  5
343
100
AcDbEntity
  8
Unnamed [1]
  6
CONTINUOUS
 62
    3
370
    0
100
AcDbCircle
 10
283.6466674804688
 20
-242.0132656097412
 40
5
100
AcDbArc
 50
0
 51
180
  0
ARC
  5
344
100
AcDbEntity
  8
Unnamed [1]
  6
CONTINUOUS
 62
    3
370
    0
100
AcDbCircle
 10
296.1466674804688
 20
-242.0132656097412
 40
5
100
AcDbArc
 50
0
 51
180
  0
ARC
  5
345
100
AcDbEntity
  8
Unnamed [1]
  6
CONTINUOUS
 62
    3
370
    0
100
AcDbCircle
 10
283.6466674804688
 20
-250.0132656097412
 40
5
100
AcDbArc
 50
180
 51
0
  0
ARC
  5
346
100
AcDbEntity
  8
Unnamed [1]
  6
CONTINUOUS
 62
    3
370
    0
100
AcDbCircle
 10
271.1466674804688
 20
-250.0132656097412
 40
5
100
AcDbArc
 50
180
 51
0
  0
ARC
  5
347
100
AcDbEntity
  8
Unnamed [1]
  6
CONTINUOUS
 62
    3
370
    0
100
AcDbCircle
 10
308.6466674804688
 20
-242.0132656097412
 40
5
100
AcDbArc
 50
0
 51
180
  0
ARC
  5
348
100
AcDbEntity
  8
Unnamed [1]
  6
CONTINUOUS
 62
    3
370
    0
100
AcDbCircle
 10
221.1466674804688
 20
-242.0132656097412
 40
5
100
AcDbArc
 50
0
 51
180
  0
ARC
  5
349
100
AcDbEntity
  8
Unnamed [1]
  6
CONTINUOUS
 62
    3
370
    0
100
AcDbCircle
 10
233.6466674804688
 20
-250.0132656097412
 40
5
100
AcDbArc
 50
180
 51
0
  0
ARC
  5
34A
100
AcDbEntity
  8
Unnamed [1]
  6
CONTINUOUS
 62
    3
370
    0
100
AcDbCircle
 10
221.1466674804688
 20
-250.0132656097412
 40
5
100
AcDbArc
 50
180
 51
0
  0
ARC
  5
34B
100
AcDbEntity
  8
Unnamed [1]
  6
CONTINUOUS
 62
    3
370
    0
100
AcDbCircle
 10
338.1466674804687
 20
-446.0132656097412
 40
2.999999999999984
100
AcDbArc
 50
270
 51
0
  0
ARC
  5
34C
100
AcDbEntity
  8
Unnamed [1]
  6
CONTINUOUS
 62
    3
370
    0
100
AcDbCircle
 10
205.5466674804687
 20
-412.0132656097412
 40
3
100
AcDbArc
 50
38.71424732350981
 51
90
  0
ARC
  5
34D
100
AcDbEntity
  8
Unnamed [1]
  6
CONTINUOUS
 62
    3
370
    0
100
AcDbCircle
 10
204.1466674804688
 20
-356.0132656097412
 40
3
100
AcDbArc
 50
180
 51
270
  0
ARC
  5
34E
100
AcDbEntity
  8
Unnamed [1]
  6
CONTINUOUS
 62
    3
370
    0
100
AcDbCircle
 10
204.1466674804688
 20
-322.0132656097412
 40
3
100
AcDbArc
 50
90
 51
180
  0
ARC
  5
34F
100
AcDbEntity
  8
Unnamed [1]
  6
CONTINUOUS
 62
    3
370
    0
100
AcDbCircle
 10
336.7466674804688
 20
-322.0132656097412
 40
3.000000000000024
100
AcDbArc
 50
90
 51
141.2857526764902
  0
ARC
  5
350
100
AcDbEntity
  8
Unnamed [1]
  6
CONTINUOUS
 62
    3
370
    0
100
AcDbCircle
 10
338.1466674804687
 20
-322.0132656097412
 40
2.999999999999984
100
AcDbArc
 50
0
 51
90
  0
ARC
  5
351
100
AcDbEntity
  8
Unnamed [1]
  6
CONTINUOUS
 62
    3
370
    0
100
AcDbCircle
 10
338.1466674804687
 20
-356.0132656097412
 40
2.999999999999984
100
AcDbArc
 50
270
 51
0
  0
ARC
  5
352
100
AcDbEntity
  8
Unnamed [1]
  6
CONTINUOUS
 62
    3
370
    0
100
AcDbCircle
 10
336.7466674804688
 20
-412.0132656097412
 40
3.000000000000024
100
AcDbArc
 50
90
 51
141.2857526764902
  0
ARC
  5
353
100
AcDbEntity
  8
Unnamed [1]
  6
CONTINUOUS
 62
    3
370
    0
100
AcDbCircle
 10
338.1466674804687
 20
-412.0132656097412
 40
2.999999999999984
100
AcDbArc
 50
0
 51
90
  0
ARC
  5
354
100
AcDbEntity
  8
Unnamed [1]
  6
CONTINUOUS
 62
    3
370
    0
100
AcDbCircle
 10
321.1466674804688
 20
-250.0132656097412
 40
5
100
AcDbArc
 50
180
 51
0
  0
ARC
  5
355
100
AcDbEntity
  8
Unnamed [1]
  6
CONTINUOUS
 62
    3
370
    0
100
AcDbCircle
 10
383.6466674804688
 20
-242.0132656097412
 40
5
100
AcDbArc
 50
0
 51
180
  0
ARC
  5
356
100
AcDbEntity
  8
Unnamed [1]
  6
CONTINUOUS
 62
    3
370
    0
100
AcDbCircle
 10
421.1466674804688
 20
-242.0132656097412
 40
5
100
AcDbArc
 50
0
 51
180
  0
ARC
  5
357
100
AcDbEntity
  8
Unnamed [1]
  6
CONTINUOUS
 62
    3
370
    0
100
AcDbCircle
 10
-501.8533325195313
 20
-412.0132656097412
 40
2.999999999999984
100
AcDbArc
 50
270
 51
0
  0
ARC
  5
358
100
AcDbEntity
  8
Unnamed [1]
  6
CONTINUOUS
 62
    3
370
    0
100
AcDbCircle
 10
-521.3533325195312
 20
-443.2632656097412
 40
5
100
AcDbArc
 50
0
 51
180
  0
ARC
  5
359
100
AcDbEntity
  8
Unnamed [1]
  6
CONTINUOUS
 62
    3
370
    0
100
AcDbCircle
 10
-503.2533325195312
 20
-378.0132656097412
 40
3.000000000000024
100
AcDbArc
 50
90
 51
141.2857526764902
  0
ARC
  5
35A
100
AcDbEntity
  8
Unnamed [1]
  6
CONTINUOUS
 62
    3
370
    0
100
AcDbCircle
 10
-629.3533325195312
 20
-443.2632656097412
 40
5
100
AcDbArc
 50
0
 51
180
  0
ARC
  5
35B
100
AcDbEntity
  8
Unnamed [1]
  6
CONTINUOUS
 62
    3
370
    0
100
AcDbCircle
 10
-724.8533325195312
 20
-466.7632656097412
 40
5
100
AcDbArc
 50
180
 51
0
  0
ARC
  5
35C
100
AcDbEntity
  8
Unnamed [1]
  6
CONTINUOUS
 62
    3
370
    0
100
AcDbCircle
 10
-674.4533325195313
 20
-288.0132656097412
 40
3
100
AcDbArc
 50
38.71424732351049
 51
90
  0
ARC
  5
35D
100
AcDbEntity
  8
Unnamed [1]
  6
CONTINUOUS
 62
    3
370
    0
100
AcDbCircle
 10
-675.8533325195312
 20
-288.0132656097412
 40
3
100
AcDbArc
 50
90
 51
180
  0
ARC
  5
35E
100
AcDbEntity
  8
Unnamed [1]
  6
CONTINUOUS
 62
    3
370
    0
100
AcDbCircle
 10
-675.8533325195312
 20
-322.0132656097412
 40
3
100
AcDbArc
 50
180
 51
270
  0
ARC
  5
35F
100
AcDbEntity
  8
Unnamed [1]
  6
CONTINUOUS
 62
    3
370
    0
100
AcDbCircle
 10
-675.8533325195312
 20
-378.0132656097412
 40
3
100
AcDbArc
 50
90
 51
180
  0
ARC
  5
360
100
AcDbEntity
  8
Unnamed [1]
  6
CONTINUOUS
 62
    3
370
    0
100
AcDbCircle
 10
-675.8533325195312
 20
-412.0132656097412
 40
3
100
AcDbArc
 50
180
 51
270
  0
ARC
  5
361
100
AcDbEntity
  8
Unnamed [1]
  6
CONTINUOUS
 62
    3
370
    0
100
AcDbCircle
 10
-503.2533325195312
 20
-288.0132656097412
 40
3.000000000000024
100
AcDbArc
 50
90
 51
141.2857526764902
  0
ARC
  5
362
100
AcDbEntity
  8
Unnamed [1]
  6
CONTINUOUS
 62
    3
370
    0
100
AcDbCircle
 10
-865.8533325195314
 20
-412.0132656097413
 40
3.000000000000024
100
AcDbArc
 50
180
 51
270
  0
ARC
  5
363
100
AcDbEntity
  8
Unnamed [1]
  6
CONTINUOUS
 62
    3
370
    0
100
AcDbCircle
 10
-865.8533325195312
 20
-288.0132656097413
 40
3.000000000000024
100
AcDbArc
 50
90
 51
180
  0
ARC
  5
364
100
AcDbEntity
  8
Unnamed [1]
  6
CONTINUOUS
 62
    3
370
    0
100
AcDbCircle
 10
-865.8533325195314
 20
-378.0132656097413
 40
3.000000000000024
100
AcDbArc
 50
90
 51
180
  0
ARC
  5
365
100
AcDbEntity
  8
Unnamed [1]
  6
CONTINUOUS
 62
    3
370
    0
100
AcDbCircle
 10
-691.8533325195315
 20
-378.0132656097413
 40
2.999999999999994
100
AcDbArc
 50
0
 51
90
  0
ARC
  5
366
100
AcDbEntity
  8
Unnamed [1]
  6
CONTINUOUS
 62
    3
370
    0
100
AcDbCircle
 10
-691.8533325195314
 20
-412.0132656097412
 40
3.000000000000024
100
AcDbArc
 50
270
 51
0
  0
ARC
  5
367
100
AcDbEntity
  8
Unnamed [1]
  6
CONTINUOUS
 62
    3
370
    0
100
AcDbCircle
 10
-864.4533325195313
 20
-412.0132656097413
 40
2.999999999999964
100
AcDbArc
 50
270
 51
334.6294543045495
  0
ARC
  5
368
100
AcDbEntity
  8
Unnamed [1]
  6
CONTINUOUS
 62
    3
370
    0
100
AcDbCircle
 10
-521.3533325195312
 20
-466.7632656097412
 40
5
100
AcDbArc
 50
180
 51
0
  0
ARC
  5
369
100
AcDbEntity
  8
Unnamed [1]
  6
CONTINUOUS
 62
    3
370
    0
100
AcDbCircle
 10
-534.8533325195312
 20
-466.7632656097412
 40
5
100
AcDbArc
 50
180
 51
0
  0
ARC
  5
36A
100
AcDbEntity
  8
Unnamed [1]
  6
CONTINUOUS
 62
    3
370
    0
100
AcDbCircle
 10
-588.8533325195312
 20
-443.2632656097412
 40
5
100
AcDbArc
 50
0
 51
180
  0
ARC
  5
36B
100
AcDbEntity
  8
Unnamed [1]
  6
CONTINUOUS
 62
    3
370
    0
100
AcDbCircle
 10
-588.8533325195312
 20
-466.7632656097412
 40
5
100
AcDbArc
 50
180
 51
0
  0
ARC
  5
36C
100
AcDbEntity
  8
Unnamed [1]
  6
CONTINUOUS
 62
    3
370
    0
100
AcDbCircle
 10
-575.3533325195312
 20
-443.2632656097412
 40
5
100
AcDbArc
 50
0
 51
180
  0
ARC
  5
36D
100
AcDbEntity
  8
Unnamed [1]
  6
CONTINUOUS
 62
    3
370
    0
100
AcDbCircle
 10
-575.3533325195312
 20
-466.7632656097412
 40
5
100
AcDbArc
 50
180
 51
0
  0
ARC
  5
36E
100
AcDbEntity
  8
Unnamed [1]
  6
CONTINUOUS
 62
    3
370
    0
100
AcDbCircle
 10
-561.8533325195312
 20
-443.2632656097412
 40
5
100
AcDbArc
 50
0
 51
180
  0
ARC
  5
36F
100
AcDbEntity
  8
Unnamed [1]
  6
CONTINUOUS
 62
    3
370
    0
100
AcDbCircle
 10
-561.8533325195312
 20
-466.7632656097412
 40
5
100
AcDbArc
 50
180
 51
0
  0
ARC
  5
370
100
AcDbEntity
  8
Unnamed [1]
  6
CONTINUOUS
 62
    3
370
    0
100
AcDbCircle
 10
-548.3533325195312
 20
-466.7632656097412
 40
5
100
AcDbArc
 50
180
 51
0
  0
ARC
  5
371
100
AcDbEntity
  8
Unnamed [1]
  6
CONTINUOUS
 62
    3
370
    0
100
AcDbCircle
 10
-534.8533325195312
 20
-443.2632656097412
 40
5
100
AcDbArc
 50
0
 51
180
  0
ARC
  5
372
100
AcDbEntity
  8
Unnamed [1]
  6
CONTINUOUS
 62
    3
370
    0
100
AcDbCircle
 10
-602.3533325195312
 20
-443.2632656097412
 40
5
100
AcDbArc
 50
0
 51
180
  0
ARC
  5
373
100
AcDbEntity
  8
Unnamed [1]
  6
CONTINUOUS
 62
    3
370
    0
100
AcDbCircle
 10
-602.3533325195312
 20
-466.7632656097412
 40
5
100
AcDbArc
 50
180
 51
0
  0
ARC
  5
374
100
AcDbEntity
  8
Unnamed [1]
  6
CONTINUOUS
 62
    3
370
    0
100
AcDbCircle
 10
-615.8533325195312
 20
-443.2632656097412
 40
5
100
AcDbArc
 50
0
 51
180
  0
ARC
  5
375
100
AcDbEntity
  8
Unnamed [1]
  6
CONTINUOUS
 62
    3
370
    0
100
AcDbCircle
 10
-615.8533325195312
 20
-466.7632656097412
 40
5
100
AcDbArc
 50
180
 51
0
  0
ARC
  5
376
100
AcDbEntity
  8
Unnamed [1]
  6
CONTINUOUS
 62
    3
370
    0
100
AcDbCircle
 10
-629.3533325195312
 20
-466.7632656097412
 40
5
100
AcDbArc
 50
180
 51
0
  0
ARC
  5
377
100
AcDbEntity
  8
Unnamed [1]
  6
CONTINUOUS
 62
    3
370
    0
100
AcDbCircle
 10
-642.8533325195312
 20
-443.2632656097412
 40
5
100
AcDbArc
 50
0
 51
180
  0
ARC
  5
378
100
AcDbEntity
  8
Unnamed [1]
  6
CONTINUOUS
 62
    3
370
    0
100
AcDbCircle
 10
-642.8533325195312
 20
-466.7632656097412
 40
5
100
AcDbArc
 50
180
 51
0
  0
ARC
  5
379
100
AcDbEntity
  8
Unnamed [1]
  6
CONTINUOUS
 62
    3
370
    0
100
AcDbCircle
 10
-656.3533325195312
 20
-443.2632656097412
 40
5
100
AcDbArc
 50
0
 51
180
  0
ARC
  5
37A
100
AcDbEntity
  8
Unnamed [1]
  6
CONTINUOUS
 62
    3
370
    0
100
AcDbCircle
 10
-656.3533325195312
 20
-466.7632656097412
 40
5
100
AcDbArc
 50
180
 51
0
  0
ARC
  5
37B
100
AcDbEntity
  8
Unnamed [1]
  6
CONTINUOUS
 62
    3
370
    0
100
AcDbCircle
 10
-846.3533325195312
 20
-466.7632656097412
 40
5
100
AcDbArc
 50
180
 51
0
  0
ARC
  5
37C
100
AcDbEntity
  8
Unnamed [1]
  6
CONTINUOUS
 62
    3
370
    0
100
AcDbCircle
 10
-846.3533325195312
 20
-443.2632656097412
 40
5
100
AcDbArc
 50
0
 51
180
  0
ARC
  5
37D
100
AcDbEntity
  8
Unnamed [1]
  6
CONTINUOUS
 62
    3
370
    0
100
AcDbCircle
 10
-832.8533325195312
 20
-466.7632656097412
 40
5
100
AcDbArc
 50
180
 51
0
  0
ARC
  5
37E
100
AcDbEntity
  8
Unnamed [1]
  6
CONTINUOUS
 62
    3
370
    0
100
AcDbCircle
 10
-832.8533325195312
 20
-443.2632656097412
 40
5
100
AcDbArc
 50
0
 51
180
  0
ARC
  5
37F
100
AcDbEntity
  8
Unnamed [1]
  6
CONTINUOUS
 62
    3
370
    0
100
AcDbCircle
 10
-819.3533325195312
 20
-466.7632656097412
 40
5
100
AcDbArc
 50
180
 51
0
  0
ARC
  5
380
100
AcDbEntity
  8
Unnamed [1]
  6
CONTINUOUS
 62
    3
370
    0
100
AcDbCircle
 10
-819.3533325195312
 20
-443.2632656097412
 40
5
100
AcDbArc
 50
0
 51
180
  0
ARC
  5
381
100
AcDbEntity
  8
Unnamed [1]
  6
CONTINUOUS
 62
    3
370
    0
100
AcDbCircle
 10
-805.8533325195312
 20
-466.7632656097412
 40
5
100
AcDbArc
 50
180
 51
0
  0
ARC
  5
382
100
AcDbEntity
  8
Unnamed [1]
  6
CONTINUOUS
 62
    3
370
    0
100
AcDbCircle
 10
-805.8533325195312
 20
-443.2632656097412
 40
5
100
AcDbArc
 50
0
 51
180
  0
ARC
  5
383
100
AcDbEntity
  8
Unnamed [1]
  6
CONTINUOUS
 62
    3
370
    0
100
AcDbCircle
 10
-792.3533325195312
 20
-466.7632656097412
 40
5
100
AcDbArc
 50
180
 51
0
  0
ARC
  5
384
100
AcDbEntity
  8
Unnamed [1]
  6
CONTINUOUS
 62
    3
370
    0
100
AcDbCircle
 10
-792.3533325195312
 20
-443.2632656097412
 40
5
100
AcDbArc
 50
0
 51
180
  0
ARC
  5
385
100
AcDbEntity
  8
Unnamed [1]
  6
CONTINUOUS
 62
    3
370
    0
100
AcDbCircle
 10
-711.3533325195312
 20
-466.7632656097412
 40
5
100
AcDbArc
 50
180
 51
0
  0
ARC
  5
386
100
AcDbEntity
  8
Unnamed [1]
  6
CONTINUOUS
 62
    3
370
    0
100
AcDbCircle
 10
-711.3533325195312
 20
-443.2632656097412
 40
5
100
AcDbArc
 50
0
 51
180
  0
ARC
  5
387
100
AcDbEntity
  8
Unnamed [1]
  6
CONTINUOUS
 62
    3
370
    0
100
AcDbCircle
 10
-724.8533325195312
 20
-443.2632656097412
 40
5
100
AcDbArc
 50
0
 51
180
  0
ARC
  5
388
100
AcDbEntity
  8
Unnamed [1]
  6
CONTINUOUS
 62
    3
370
    0
100
AcDbCircle
 10
-738.3533325195312
 20
-466.7632656097412
 40
5
100
AcDbArc
 50
180
 51
0
  0
ARC
  5
389
100
AcDbEntity
  8
Unnamed [1]
  6
CONTINUOUS
 62
    3
370
    0
100
AcDbCircle
 10
-738.3533325195312
 20
-443.2632656097412
 40
5
100
AcDbArc
 50
0
 51
180
  0
ARC
  5
38A
100
AcDbEntity
  8
Unnamed [1]
  6
CONTINUOUS
 62
    3
370
    0
100
AcDbCircle
 10
-751.8533325195312
 20
-466.7632656097412
 40
5
100
AcDbArc
 50
180
 51
0
  0
ARC
  5
38B
100
AcDbEntity
  8
Unnamed [1]
  6
CONTINUOUS
 62
    3
370
    0
100
AcDbCircle
 10
-751.8533325195312
 20
-443.2632656097412
 40
5
100
AcDbArc
 50
0
 51
180
  0
ARC
  5
38C
100
AcDbEntity
  8
Unnamed [1]
  6
CONTINUOUS
 62
    3
370
    0
100
AcDbCircle
 10
-765.3533325195312
 20
-466.7632656097412
 40
5
100
AcDbArc
 50
180
 51
0
  0
ARC
  5
38D
100
AcDbEntity
  8
Unnamed [1]
  6
CONTINUOUS
 62
    3
370
    0
100
AcDbCircle
 10
-765.3533325195312
 20
-443.2632656097412
 40
5
100
AcDbArc
 50
0
 51
180
  0
ARC
  5
38E
100
AcDbEntity
  8
Unnamed [1]
  6
CONTINUOUS
 62
    3
370
    0
100
AcDbCircle
 10
-778.8533325195312
 20
-466.7632656097412
 40
5
100
AcDbArc
 50
180
 51
0
  0
ARC
  5
38F
100
AcDbEntity
  8
Unnamed [1]
  6
CONTINUOUS
 62
    3
370
    0
100
AcDbCircle
 10
-691.8533325195315
 20
-322.0132656097413
 40
3.000000000000004
100
AcDbArc
 50
270
 51
0
  0
ARC
  5
390
100
AcDbEntity
  8
Unnamed [1]
  6
CONTINUOUS
 62
    3
370
    0
100
AcDbCircle
 10
-865.8533325195314
 20
-322.0132656097413
 40
3.000000000000004
100
AcDbArc
 50
180
 51
270
  0
ARC
  5
391
100
AcDbEntity
  8
Unnamed [1]
  6
CONTINUOUS
 62
    3
370
    0
100
AcDbCircle
 10
-864.4533325195314
 20
-322.0132656097412
 40
3.000000000000004
100
AcDbArc
 50
270
 51
321.2857526764887
  0
ARC
  5
392
100
AcDbEntity
  8
Unnamed [1]
  6
CONTINUOUS
 62
    3
370
    0
100
AcDbCircle
 10
-693.2533325195313
 20
-322.0132656097414
 40
2.999999999999964
100
AcDbArc
 50
218.7142473235113
 51
269.9999999999978
  0
ARC
  5
393
100
AcDbEntity
  8
Unnamed [1]
  6
CONTINUOUS
 62
    3
370
    0
100
AcDbCircle
 10
-548.3533325195312
 20
-443.2632656097412
 40
5
100
AcDbArc
 50
0
 51
180
  0
ARC
  5
394
100
AcDbEntity
  8
Unnamed [1]
  6
CONTINUOUS
 62
    3
370
    0
100
AcDbCircle
 10
-501.8533325195313
 20
-378.0132656097412
 40
2.999999999999984
100
AcDbArc
 50
0
 51
90
  0
ARC
  5
395
100
AcDbEntity
  8
Unnamed [1]
  6
CONTINUOUS
 62
    3
370
    0
100
AcDbCircle
 10
-693.2533325195313
 20
-412.0132656097413
 40
3.000000000000004
100
AcDbArc
 50
205.3705456954495
 51
270
  0
ARC
  5
396
100
AcDbEntity
  8
Unnamed [1]
  6
CONTINUOUS
 62
    3
370
    0
100
AcDbCircle
 10
-501.8533325195313
 20
-322.0132656097412
 40
2.999999999999984
100
AcDbArc
 50
270
 51
0
  0
ARC
  5
397
100
AcDbEntity
  8
Unnamed [1]
  6
CONTINUOUS
 62
    3
370
    0
100
AcDbCircle
 10
-778.8533325195312
 20
-443.2632656097412
 40
5
100
AcDbArc
 50
0
 51
180
  0
ARC
  5
398
100
AcDbEntity
  8
Unnamed [1]
  6
CONTINUOUS
 62
    3
370
    0
100
AcDbCircle
 10
-674.4533325195313
 20
-378.0132656097412
 40
3
100
AcDbArc
 50
38.71424732351049
 51
90
  0
ARC
  5
399
100
AcDbEntity
  8
Unnamed [1]
  6
CONTINUOUS
 62
    3
370
    0
100
AcDbCircle
 10
-501.8533325195313
 20
-288.0132656097412
 40
2.999999999999984
100
AcDbArc
 50
0
 51
90
  0
ARC
  5
39A
100
AcDbEntity
  8
Unnamed [1]
  6
CONTINUOUS
 62
    3
370
    0
100
AcDbCircle
 10
-691.8533325195314
 20
-288.0132656097412
 40
2.999999999999913
100
AcDbArc
 50
0
 51
90
  0
ARC
  5
39B
100
AcDbEntity
  8
Unnamed [1]
  6
CONTINUOUS
 62
    3
370
    0
100
AcDbCircle
 10
205.5466674804687
 20
-322.0132656097412
 40
3
100
AcDbArc
 50
38.71424732350981
 51
90
  0
ARC
  5
39C
100
AcDbEntity
  8
Unnamed [1]
  6
CONTINUOUS
 62
    3
370
    0
100
AcDbCircle
 10
-295.8533325195312
 20
-412.0132656097412
 40
3
100
AcDbArc
 50
180
 51
270
  0
ARC
  5
39D
100
AcDbEntity
  8
Unnamed [1]
  6
CONTINUOUS
 62
    3
370
    0
100
AcDbCircle
 10
-311.8533325195314
 20
-412.0132656097412
 40
3.000000000000024
100
AcDbArc
 50
270
 51
0
  0
CIRCLE
  5
39E
100
AcDbEntity
  8
Unnamed [1]
  6
CONTINUOUS
 62
    3
370
    0
100
AcDbCircle
 10
-208.8580120849609
 20
-160.0117803955078
 40
4
  0
CIRCLE
  5
39F
100
AcDbEntity
  8
Unnamed [1]
  6
CONTINUOUS
 62
    3
370
    0
100
AcDbCircle
 10
-208.8580120849609
 20
-140.0117803955078
 40
4
  0
CIRCLE
  5
3A0
100
AcDbEntity
  8
Unnamed [1]
  6
CONTINUOUS
 62
    3
370
    0
100
AcDbCircle
 10
-208.8580120849609
 20
-120.0117803955078
 40
4
  0
CIRCLE
  5
3A1
100
AcDbEntity
  8
Unnamed [1]
  6
CONTINUOUS
 62
    3
370
    0
100
AcDbCircle
 10
-208.8580120849609
 20
-200.0117803955078
 40
3.999999999999992
  0
CIRCLE
  5
3A2
100
AcDbEntity
  8
Unnamed [1]
  6
CONTINUOUS
 62
    3
370
    0
100
AcDbCircle
 10
-208.8580120849609
 20
-180.0117803955078
 40
3.999999999999992
  0
CIRCLE
  5
3A3
100
AcDbEntity
  8
Unnamed [1]
  6
CONTINUOUS
 62
    3
370
    0
100
AcDbCircle
 10
-188.8580120849609
 20
-200.0117803955078
 40
3.999999999999992
  0
CIRCLE
  5
3A4
100
AcDbEntity
  8
Unnamed [1]
  6
CONTINUOUS
 62
    3
370
    0
100
AcDbCircle
 10
-188.8580120849609
 20
-140.0117803955078
 40
4
  0
CIRCLE
  5
3A5
100
AcDbEntity
  8
Unnamed [1]
  6
CONTINUOUS
 62
    3
370
    0
100
AcDbCircle
 10
-188.8580120849609
 20
-120.0117803955078
 40
4
  0
CIRCLE
  5
3A6
100
AcDbEntity
  8
Unnamed [1]
  6
CONTINUOUS
 62
    3
370
    0
100
AcDbCircle
 10
-188.8580120849609
 20
-180.0117803955078
 40
3.999999999999992
  0
CIRCLE
  5
3A7
100
AcDbEntity
  8
Unnamed [1]
  6
CONTINUOUS
 62
    3
370
    0
100
AcDbCircle
 10
-188.8580120849609
 20
-160.0117803955078
 40
4
  0
CIRCLE
  5
3A8
100
AcDbEntity
  8
Unnamed [1]
  6
CONTINUOUS
 62
    3
370
    0
100
AcDbCircle
 10
-168.8580120849609
 20
-200.0117803955078
 40
3.999999999999992
  0
CIRCLE
  5
3A9
100
AcDbEntity
  8
Unnamed [1]
  6
CONTINUOUS
 62
    3
370
    0
100
AcDbCircle
 10
-168.8580120849609
 20
-140.0117803955078
 40
4
  0
CIRCLE
  5
3AA
100
AcDbEntity
  8
Unnamed [1]
  6
CONTINUOUS
 62
    3
370
    0
100
AcDbCircle
 10
-168.8580120849609
 20
-120.0117803955078
 40
4
  0
CIRCLE
  5
3AB
100
AcDbEntity
  8
Unnamed [1]
  6
CONTINUOUS
 62
    3
370
    0
100
AcDbCircle
 10
-168.8580120849609
 20
-180.0117803955078
 40
3.999999999999992
  0
CIRCLE
  5
3AC
100
AcDbEntity
  8
Unnamed [1]
  6
CONTINUOUS
 62
    3
370
    0
100
AcDbCircle
 10
-168.8580120849609
 20
-160.0117803955078
 40
4
  0
CIRCLE
  5
3AD
100
AcDbEntity
  8
Unnamed [1]
  6
CONTINUOUS
 62
    3
370
    0
100
AcDbCircle
 10
-228.858012084961
 20
-200.0117803955077
 40
3.999999999999972
  0
CIRCLE
  5
3AE
100
AcDbEntity
  8
Unnamed [1]
  6
CONTINUOUS
 62
    3
370
    0
100
AcDbCircle
 10
-228.858012084961
 20
-140.0117803955078
 40
4.000000000000012
  0
CIRCLE
  5
3AF
100
AcDbEntity
  8
Unnamed [1]
  6
CONTINUOUS
 62
    3
370
    0
100
AcDbCircle
 10
-228.858012084961
 20
-120.0117803955078
 40
4.000000000000012
  0
CIRCLE
  5
3B0
100
AcDbEntity
  8
Unnamed [1]
  6
CONTINUOUS
 62
    3
370
    0
100
AcDbCircle
 10
-228.858012084961
 20
-180.0117803955078
 40
3.999999999999972
  0
CIRCLE
  5
3B1
100
AcDbEntity
  8
Unnamed [1]
  6
CONTINUOUS
 62
    3
370
    0
100
AcDbCircle
 10
-228.858012084961
 20
-160.0117803955078
 40
4.000000000000012
  0
CIRCLE
  5
3B2
100
AcDbEntity
  8
Unnamed [1]
  6
CONTINUOUS
 62
    3
370
    0
100
AcDbCircle
 10
-248.858012084961
 20
-200.0117803955077
 40
3.999999999999972
  0
CIRCLE
  5
3B3
100
AcDbEntity
  8
Unnamed [1]
  6
CONTINUOUS
 62
    3
370
    0
100
AcDbCircle
 10
-248.858012084961
 20
-140.0117803955078
 40
4.000000000000012
  0
CIRCLE
  5
3B4
100
AcDbEntity
  8
Unnamed [1]
  6
CONTINUOUS
 62
    3
370
    0
100
AcDbCircle
 10
-248.858012084961
 20
-120.0117803955078
 40
4.000000000000012
  0
CIRCLE
  5
3B5
100
AcDbEntity
  8
Unnamed [1]
  6
CONTINUOUS
 62
    3
370
    0
100
AcDbCircle
 10
-248.8580120849609
 20
-180.0117803955077
 40
4.000000000000012
  0
CIRCLE
  5
3B6
100
AcDbEntity
  8
Unnamed [1]
  6
CONTINUOUS
 62
    3
370
    0
100
AcDbCircle
 10
-248.858012084961
 20
-160.0117803955078
 40
4.000000000000012
  0
CIRCLE
  5
3B7
100
AcDbEntity
  8
Unnamed [1]
  6
CONTINUOUS
 62
    3
370
    0
100
AcDbCircle
 10
-238.8580120849609
 20
-170.0117803955077
 40
4.000000000000012
  0
CIRCLE
  5
3B8
100
AcDbEntity
  8
Unnamed [1]
  6
CONTINUOUS
 62
    3
370
    0
100
AcDbCircle
 10
-158.8580120849609
 20
-150.0117803955078
 40
4
  0
CIRCLE
  5
3B9
100
AcDbEntity
  8
Unnamed [1]
  6
CONTINUOUS
 62
    3
370
    0
100
AcDbCircle
 10
-218.858012084961
 20
-110.0117803955078
 40
4.000000000000012
  0
CIRCLE
  5
3BA
100
AcDbEntity
  8
Unnamed [1]
  6
CONTINUOUS
 62
    3
370
    0
100
AcDbCircle
 10
-238.858012084961
 20
-110.0117803955078
 40
4.000000000000012
  0
CIRCLE
  5
3BB
100
AcDbEntity
  8
Unnamed [1]
  6
CONTINUOUS
 62
    3
370
    0
100
AcDbCircle
 10
-158.8580120849609
 20
-130.0117803955078
 40
4
  0
CIRCLE
  5
3BC
100
AcDbEntity
  8
Unnamed [1]
  6
CONTINUOUS
 62
    3
370
    0
100
AcDbCircle
 10
-178.8580120849609
 20
-190.0117803955078
 40
3.999999999999992
  0
CIRCLE
  5
3BD
100
AcDbEntity
  8
Unnamed [1]
  6
CONTINUOUS
 62
    3
370
    0
100
AcDbCircle
 10
-238.858012084961
 20
-190.0117803955077
 40
3.999999999999972
  0
CIRCLE
  5
3BE
100
AcDbEntity
  8
Unnamed [1]
  6
CONTINUOUS
 62
    3
370
    0
100
AcDbCircle
 10
-218.858012084961
 20
-190.0117803955077
 40
3.999999999999972
  0
CIRCLE
  5
3BF
100
AcDbEntity
  8
Unnamed [1]
  6
CONTINUOUS
 62
    3
370
    0
100
AcDbCircle
 10
-158.8580120849609
 20
-110.0117803955078
 40
4
  0
CIRCLE
  5
3C0
100
AcDbEntity
  8
Unnamed [1]
  6
CONTINUOUS
 62
    3
370
    0
100
AcDbCircle
 10
-238.858012084961
 20
-130.0117803955078
 40
4.000000000000012
  0
CIRCLE
  5
3C1
100
AcDbEntity
  8
Unnamed [1]
  6
CONTINUOUS
 62
    3
370
    0
100
AcDbCircle
 10
-198.8580120849609
 20
-110.0117803955078
 40
4
  0
CIRCLE
  5
3C2
100
AcDbEntity
  8
Unnamed [1]
  6
CONTINUOUS
 62
    3
370
    0
100
AcDbCircle
 10
-198.8580120849609
 20
-190.0117803955078
 40
3.999999999999992
  0
CIRCLE
  5
3C3
100
AcDbEntity
  8
Unnamed [1]
  6
CONTINUOUS
 62
    3
370
    0
100
AcDbCircle
 10
-198.8580120849609
 20
-170.0117803955078
 40
3.999999999999992
  0
CIRCLE
  5
3C4
100
AcDbEntity
  8
Unnamed [1]
  6
CONTINUOUS
 62
    3
370
    0
100
AcDbCircle
 10
-218.858012084961
 20
-150.0117803955078
 40
4.000000000000012
  0
CIRCLE
  5
3C5
100
AcDbEntity
  8
Unnamed [1]
  6
CONTINUOUS
 62
    3
370
    0
100
AcDbCircle
 10
-238.858012084961
 20
-150.0117803955078
 40
4.000000000000012
  0
CIRCLE
  5
3C6
100
AcDbEntity
  8
Unnamed [1]
  6
CONTINUOUS
 62
    3
370
    0
100
AcDbCircle
 10
-198.8580120849609
 20
-130.0117803955078
 40
4
  0
CIRCLE
  5
3C7
100
AcDbEntity
  8
Unnamed [1]
  6
CONTINUOUS
 62
    3
370
    0
100
AcDbCircle
 10
-178.8580120849609
 20
-130.0117803955078
 40
4
  0
CIRCLE
  5
3C8
100
AcDbEntity
  8
Unnamed [1]
  6
CONTINUOUS
 62
    3
370
    0
100
AcDbCircle
 10
-178.8580120849609
 20
-150.0117803955078
 40
4
  0
CIRCLE
  5
3C9
100
AcDbEntity
  8
Unnamed [1]
  6
CONTINUOUS
 62
    3
370
    0
100
AcDbCircle
 10
-178.8580120849609
 20
-110.0117803955078
 40
4
  0
CIRCLE
  5
3CA
100
AcDbEntity
  8
Unnamed [1]
  6
CONTINUOUS
 62
    3
370
    0
100
AcDbCircle
 10
-178.8580120849609
 20
-170.0117803955078
 40
3.999999999999992
  0
CIRCLE
  5
3CB
100
AcDbEntity
  8
Unnamed [1]
  6
CONTINUOUS
 62
    3
370
    0
100
AcDbCircle
 10
-198.8580120849609
 20
-150.0117803955078
 40
4
  0
CIRCLE
  5
3CC
100
AcDbEntity
  8
Unnamed [1]
  6
CONTINUOUS
 62
    3
370
    0
100
AcDbCircle
 10
-158.8580120849609
 20
-170.0117803955078
 40
3.999999999999992
  0
CIRCLE
  5
3CD
100
AcDbEntity
  8
Unnamed [1]
  6
CONTINUOUS
 62
    3
370
    0
100
AcDbCircle
 10
-158.8580120849609
 20
-190.0117803955078
 40
3.999999999999992
  0
CIRCLE
  5
3CE
100
AcDbEntity
  8
Unnamed [1]
  6
CONTINUOUS
 62
    3
370
    0
100
AcDbCircle
 10
-218.858012084961
 20
-130.0117803955078
 40
4.000000000000012
  0
CIRCLE
  5
3CF
100
AcDbEntity
  8
Unnamed [1]
  6
CONTINUOUS
 62
    3
370
    0
100
AcDbCircle
 10
-218.858012084961
 20
-170.0117803955078
 40
3.999999999999972
  0
CIRCLE
  5
3D0
100
AcDbEntity
  8
Unnamed [1]
  6
CONTINUOUS
 62
    3
370
    0
100
AcDbCircle
 10
-258.858012084961
 20
-110.0117803955078
 40
4.000000000000012
  0
CIRCLE
  5
3D1
100
AcDbEntity
  8
Unnamed [1]
  6
CONTINUOUS
 62
    3
370
    0
100
AcDbCircle
 10
-258.858012084961
 20
-130.0117803955078
 40
4.000000000000012
  0
CIRCLE
  5
3D2
100
AcDbEntity
  8
Unnamed [1]
  6
CONTINUOUS
 62
    3
370
    0
100
AcDbCircle
 10
-258.858012084961
 20
-150.0117803955078
 40
4.000000000000012
  0
CIRCLE
  5
3D3
100
AcDbEntity
  8
Unnamed [1]
  6
CONTINUOUS
 62
    3
370
    0
100
AcDbCircle
 10
-258.8580120849609
 20
-170.0117803955077
 40
4.000000000000012
  0
CIRCLE
  5
3D4
100
AcDbEntity
  8
Unnamed [1]
  6
CONTINUOUS
 62
    3
370
    0
100
AcDbCircle
 10
-258.858012084961
 20
-190.0117803955077
 40
3.999999999999972
  0
CIRCLE
  5
3D5
100
AcDbEntity
  8
Unnamed [1]
  6
CONTINUOUS
 62
    3
370
    0
100
AcDbCircle
 10
-258.858012084961
 20
-210.0117803955077
 40
3.999999999999972
  0
CIRCLE
  5
3D6
100
AcDbEntity
  8
Unnamed [1]
  6
CONTINUOUS
 62
    3
370
    0
100
AcDbCircle
 10
-238.858012084961
 20
-210.0117803955077
 40
3.999999999999972
  0
CIRCLE
  5
3D7
100
AcDbEntity
  8
Unnamed [1]
  6
CONTINUOUS
 62
    3
370
    0
100
AcDbCircle
 10
-218.858012084961
 20
-210.0117803955077
 40
3.999999999999972
  0
CIRCLE
  5
3D8
100
AcDbEntity
  8
Unnamed [1]
  6
CONTINUOUS
 62
    3
370
    0
100
AcDbCircle
 10
-198.8580120849609
 20
-210.0117803955078
 40
3.999999999999992
  0
CIRCLE
  5
3D9
100
AcDbEntity
  8
Unnamed [1]
  6
CONTINUOUS
 62
    3
370
    0
100
AcDbCircle
 10
-178.8580120849609
 20
-210.0117803955078
 40
3.999999999999992
  0
CIRCLE
  5
3DA
100
AcDbEntity
  8
Unnamed [1]
  6
CONTINUOUS
 62
    3
370
    0
100
AcDbCircle
 10
-158.8580120849609
 20
-210.0117803955078
 40
3.999999999999992
  0
CIRCLE
  5
3DB
100
AcDbEntity
  8
Unnamed [1]
  6
CONTINUOUS
 62
    3
370
    0
100
AcDbCircle
 10
-778.8494067382812
 20
-149.0103798675537
 40
64.5
  0
CIRCLE
  5
3DC
100
AcDbEntity
  8
Unnamed [1]
  6
CONTINUOUS
 62
    3
370
    0
100
AcDbCircle
 10
-618.8533325195312
 20
-120.0132656097412
 40
2.5
  0
CIRCLE
  5
3DD
100
AcDbEntity
  8
Unnamed [1]
  6
CONTINUOUS
 62
    3
370
    0
100
AcDbCircle
 10
-628.8533325195312
 20
-180.0132656097411
 40
2.5
  0
CIRCLE
  5
3DE
100
AcDbEntity
  8
Unnamed [1]
  6
CONTINUOUS
 62
    3
370
    0
100
AcDbCircle
 10
-618.8533325195312
 20
-180.0132656097411
 40
2.5
  0
CIRCLE
  5
3DF
100
AcDbEntity
  8
Unnamed [1]
  6
CONTINUOUS
 62
    3
370
    0
100
AcDbCircle
 10
-608.8533325195312
 20
-160.0132656097412
 40
2.5
  0
CIRCLE
  5
3E0
100
AcDbEntity
  8
Unnamed [1]
  6
CONTINUOUS
 62
    3
370
    0
100
AcDbCircle
 10
-608.8533325195312
 20
-150.0132656097412
 40
2.5
  0
CIRCLE
  5
3E1
100
AcDbEntity
  8
Unnamed [1]
  6
CONTINUOUS
 62
    3
370
    0
100
AcDbCircle
 10
-608.8533325195312
 20
-140.0132656097412
 40
2.5
  0
CIRCLE
  5
3E2
100
AcDbEntity
  8
Unnamed [1]
  6
CONTINUOUS
 62
    3
370
    0
100
AcDbCircle
 10
-598.8533325195312
 20
-140.0132656097412
 40
2.5
  0
CIRCLE
  5
3E3
100
AcDbEntity
  8
Unnamed [1]
  6
CONTINUOUS
 62
    3
370
    0
100
AcDbCircle
 10
-608.8533325195312
 20
-130.0132656097412
 40
2.5
  0
CIRCLE
  5
3E4
100
AcDbEntity
  8
Unnamed [1]
  6
CONTINUOUS
 62
    3
370
    0
100
AcDbCircle
 10
-608.8533325195312
 20
-130.0132656097412
 40
2.5
  0
CIRCLE
  5
3E5
100
AcDbEntity
  8
Unnamed [1]
  6
CONTINUOUS
 62
    3
370
    0
100
AcDbCircle
 10
-608.8533325195312
 20
-120.0132656097412
 40
2.5
  0
CIRCLE
  5
3E6
100
AcDbEntity
  8
Unnamed [1]
  6
CONTINUOUS
 62
    3
370
    0
100
AcDbCircle
 10
-568.8533325195312
 20
-140.0132656097412
 40
2.5
  0
CIRCLE
  5
3E7
100
AcDbEntity
  8
Unnamed [1]
  6
CONTINUOUS
 62
    3
370
    0
100
AcDbCircle
 10
-628.8533325195312
 20
-140.0132656097412
 40
2.5
  0
CIRCLE
  5
3E8
100
AcDbEntity
  8
Unnamed [1]
  6
CONTINUOUS
 62
    3
370
    0
100
AcDbCircle
 10
-628.8533325195312
 20
-160.0132656097412
 40
2.5
  0
CIRCLE
  5
3E9
100
AcDbEntity
  8
Unnamed [1]
  6
CONTINUOUS
 62
    3
370
    0
100
AcDbCircle
 10
-588.8533325195312
 20
-120.0132656097412
 40
2.5
  0
CIRCLE
  5
3EA
100
AcDbEntity
  8
Unnamed [1]
  6
CONTINUOUS
 62
    3
370
    0
100
AcDbCircle
 10
-568.8533325195312
 20
-180.0132656097412
 40
2.5
  0
CIRCLE
  5
3EB
100
AcDbEntity
  8
Unnamed [1]
  6
CONTINUOUS
 62
    3
370
    0
100
AcDbCircle
 10
-588.8533325195312
 20
-200.0132656097412
 40
2.5
  0
CIRCLE
  5
3EC
100
AcDbEntity
  8
Unnamed [1]
  6
CONTINUOUS
 62
    3
370
    0
100
AcDbCircle
 10
-568.8533325195312
 20
-200.0132656097412
 40
2.5
  0
CIRCLE
  5
3ED
100
AcDbEntity
  8
Unnamed [1]
  6
CONTINUOUS
 62
    3
370
    0
100
AcDbCircle
 10
-618.8533325195312
 20
-170.0132656097411
 40
2.5
  0
CIRCLE
  5
3EE
100
AcDbEntity
  8
Unnamed [1]
  6
CONTINUOUS
 62
    3
370
    0
100
AcDbCircle
 10
-578.8533325195312
 20
-170.0132656097412
 40
2.5
  0
CIRCLE
  5
3EF
100
AcDbEntity
  8
Unnamed [1]
  6
CONTINUOUS
 62
    3
370
    0
100
AcDbCircle
 10
-598.8533325195312
 20
-170.0132656097412
 40
2.5
  0
CIRCLE
  5
3F0
100
AcDbEntity
  8
Unnamed [1]
  6
CONTINUOUS
 62
    3
370
    0
100
AcDbCircle
 10
-618.8533325195312
 20
-130.0132656097412
 40
2.5
  0
CIRCLE
  5
3F1
100
AcDbEntity
  8
Unnamed [1]
  6
CONTINUOUS
 62
    3
370
    0
100
AcDbCircle
 10
-578.8533325195312
 20
-150.0132656097412
 40
2.5
  0
CIRCLE
  5
3F2
100
AcDbEntity
  8
Unnamed [1]
  6
CONTINUOUS
 62
    3
370
    0
100
AcDbCircle
 10
-618.8533325195312
 20
-150.0132656097412
 40
2.5
  0
CIRCLE
  5
3F3
100
AcDbEntity
  8
Unnamed [1]
  6
CONTINUOUS
 62
    3
370
    0
100
AcDbCircle
 10
-578.8533325195312
 20
-130.0132656097412
 40
2.5
  0
CIRCLE
  5
3F4
100
AcDbEntity
  8
Unnamed [1]
  6
CONTINUOUS
 62
    3
370
    0
100
AcDbCircle
 10
-578.8533325195312
 20
-110.0132656097412
 40
2.5
  0
CIRCLE
  5
3F5
100
AcDbEntity
  8
Unnamed [1]
  6
CONTINUOUS
 62
    3
370
    0
100
AcDbCircle
 10
-598.8533325195312
 20
-110.0132656097412
 40
2.5
  0
CIRCLE
  5
3F6
100
AcDbEntity
  8
Unnamed [1]
  6
CONTINUOUS
 62
    3
370
    0
100
AcDbCircle
 10
-598.8533325195315
 20
-190.0132656097411
 40
2.5
  0
CIRCLE
  5
3F7
100
AcDbEntity
  8
Unnamed [1]
  6
CONTINUOUS
 62
    3
370
    0
100
AcDbCircle
 10
-558.8533325195312
 20
-190.0132656097412
 40
2.5
  0
CIRCLE
  5
3F8
100
AcDbEntity
  8
Unnamed [1]
  6
CONTINUOUS
 62
    3
370
    0
100
AcDbCircle
 10
-578.8533325195312
 20
-190.0132656097412
 40
2.5
  0
CIRCLE
  5
3F9
100
AcDbEntity
  8
Unnamed [1]
  6
CONTINUOUS
 62
    3
370
    0
100
AcDbCircle
 10
-598.8533325195312
 20
-190.0132656097412
 40
2.5
  0
CIRCLE
  5
3FA
100
AcDbEntity
  8
Unnamed [1]
  6
CONTINUOUS
 62
    3
370
    0
100
AcDbCircle
 10
-618.8533325195312
 20
-190.0132656097412
 40
2.5
  0
CIRCLE
  5
3FB
100
AcDbEntity
  8
Unnamed [1]
  6
CONTINUOUS
 62
    3
370
    0
100
AcDbCircle
 10
-578.8533325195312
 20
-190.0132656097412
 40
2.5
  0
CIRCLE
  5
3FC
100
AcDbEntity
  8
Unnamed [1]
  6
CONTINUOUS
 62
    3
370
    0
100
AcDbCircle
 10
-558.8533325195312
 20
-190.0132656097412
 40
2.5
  0
CIRCLE
  5
3FD
100
AcDbEntity
  8
Unnamed [1]
  6
CONTINUOUS
 62
    3
370
    0
100
AcDbCircle
 10
-618.8533325195312
 20
-150.0132656097412
 40
2.5
  0
CIRCLE
  5
3FE
100
AcDbEntity
  8
Unnamed [1]
  6
CONTINUOUS
 62
    3
370
    0
100
AcDbCircle
 10
-558.8533325195312
 20
-170.0132656097412
 40
2.5
  0
CIRCLE
  5
3FF
100
AcDbEntity
  8
Unnamed [1]
  6
CONTINUOUS
 62
    3
370
    0
100
AcDbCircle
 10
-578.8533325195312
 20
-170.0132656097412
 40
2.5
  0
CIRCLE
  5
400
100
AcDbEntity
  8
Unnamed [1]
  6
CONTINUOUS
 62
    3
370
    0
100
AcDbCircle
 10
-598.8533325195312
 20
-170.0132656097412
 40
2.5
  0
CIRCLE
  5
401
100
AcDbEntity
  8
Unnamed [1]
  6
CONTINUOUS
 62
    3
370
    0
100
AcDbCircle
 10
-618.8533325195312
 20
-170.0132656097412
 40
2.5
  0
CIRCLE
  5
402
100
AcDbEntity
  8
Unnamed [1]
  6
CONTINUOUS
 62
    3
370
    0
100
AcDbCircle
 10
-638.8533325195312
 20
-170.0132656097412
 40
2.5
  0
CIRCLE
  5
403
100
AcDbEntity
  8
Unnamed [1]
  6
CONTINUOUS
 62
    3
370
    0
100
AcDbCircle
 10
-598.8533325195312
 20
-150.0132656097412
 40
2.5
  0
CIRCLE
  5
404
100
AcDbEntity
  8
Unnamed [1]
  6
CONTINUOUS
 62
    3
370
    0
100
AcDbCircle
 10
-558.8533325195312
 20
-150.0132656097412
 40
2.5
  0
CIRCLE
  5
405
100
AcDbEntity
  8
Unnamed [1]
  6
CONTINUOUS
 62
    3
370
    0
100
AcDbCircle
 10
-578.8533325195312
 20
-150.0132656097412
 40
2.5
  0
CIRCLE
  5
406
100
AcDbEntity
  8
Unnamed [1]
  6
CONTINUOUS
 62
    3
370
    0
100
AcDbCircle
 10
-578.8533325195312
 20
-130.0132656097412
 40
2.5
  0
CIRCLE
  5
407
100
AcDbEntity
  8
Unnamed [1]
  6
CONTINUOUS
 62
    3
370
    0
100
AcDbCircle
 10
-618.8533325195312
 20
-130.0132656097412
 40
2.5
  0
CIRCLE
  5
408
100
AcDbEntity
  8
Unnamed [1]
  6
CONTINUOUS
 62
    3
370
    0
100
AcDbCircle
 10
-578.8533325195312
 20
-210.0132656097412
 40
2.5
  0
CIRCLE
  5
409
100
AcDbEntity
  8
Unnamed [1]
  6
CONTINUOUS
 62
    3
370
    0
100
AcDbCircle
 10
-598.8533325195315
 20
-200.0132656097411
 40
2.5
  0
CIRCLE
  5
40A
100
AcDbEntity
  8
Unnamed [1]
  6
CONTINUOUS
 62
    3
370
    0
100
AcDbCircle
 10
-588.8533325195315
 20
-190.0132656097411
 40
2.5
  0
CIRCLE
  5
40B
100
AcDbEntity
  8
Unnamed [1]
  6
CONTINUOUS
 62
    3
370
    0
100
AcDbCircle
 10
-558.8533325195312
 20
-200.0132656097412
 40
2.5
  0
CIRCLE
  5
40C
100
AcDbEntity
  8
Unnamed [1]
  6
CONTINUOUS
 62
    3
370
    0
100
AcDbCircle
 10
-588.8533325195312
 20
-190.0132656097412
 40
2.5
  0
CIRCLE
  5
40D
100
AcDbEntity
  8
Unnamed [1]
  6
CONTINUOUS
 62
    3
370
    0
100
AcDbCircle
 10
-568.8533325195312
 20
-190.0132656097412
 40
2.5
  0
CIRCLE
  5
40E
100
AcDbEntity
  8
Unnamed [1]
  6
CONTINUOUS
 62
    3
370
    0
100
AcDbCircle
 10
-568.8533325195312
 20
-190.0132656097412
 40
2.5
  0
CIRCLE
  5
40F
100
AcDbEntity
  8
Unnamed [1]
  6
CONTINUOUS
 62
    3
370
    0
100
AcDbCircle
 10
-628.8533325195312
 20
-150.0132656097412
 40
2.5
  0
CIRCLE
  5
410
100
AcDbEntity
  8
Unnamed [1]
  6
CONTINUOUS
 62
    3
370
    0
100
AcDbCircle
 10
-628.8533325195312
 20
-170.0132656097412
 40
2.5
  0
CIRCLE
  5
411
100
AcDbEntity
  8
Unnamed [1]
  6
CONTINUOUS
 62
    3
370
    0
100
AcDbCircle
 10
-618.8533325195312
 20
-160.0132656097412
 40
2.5
  0
CIRCLE
  5
412
100
AcDbEntity
  8
Unnamed [1]
  6
CONTINUOUS
 62
    3
370
    0
100
AcDbCircle
 10
-598.8533325195312
 20
-160.0132656097412
 40
2.5
  0
CIRCLE
  5
413
100
AcDbEntity
  8
Unnamed [1]
  6
CONTINUOUS
 62
    3
370
    0
100
AcDbCircle
 10
-538.8533325195312
 20
-160.0132656097412
 40
2.5
  0
CIRCLE
  5
414
100
AcDbEntity
  8
Unnamed [1]
  6
CONTINUOUS
 62
    3
370
    0
100
AcDbCircle
 10
-558.8533325195312
 20
-180.0132656097412
 40
2.5
  0
CIRCLE
  5
415
100
AcDbEntity
  8
Unnamed [1]
  6
CONTINUOUS
 62
    3
370
    0
100
AcDbCircle
 10
-598.8533325195312
 20
-180.0132656097412
 40
2.5
  0
CIRCLE
  5
416
100
AcDbEntity
  8
Unnamed [1]
  6
CONTINUOUS
 62
    3
370
    0
100
AcDbCircle
 10
-578.8533325195312
 20
-180.0132656097412
 40
2.5
  0
CIRCLE
  5
417
100
AcDbEntity
  8
Unnamed [1]
  6
CONTINUOUS
 62
    3
370
    0
100
AcDbCircle
 10
-608.8533325195312
 20
-150.0132656097412
 40
2.5
  0
CIRCLE
  5
418
100
AcDbEntity
  8
Unnamed [1]
  6
CONTINUOUS
 62
    3
370
    0
100
AcDbCircle
 10
-568.8533325195312
 20
-170.0132656097412
 40
2.5
  0
CIRCLE
  5
419
100
AcDbEntity
  8
Unnamed [1]
  6
CONTINUOUS
 62
    3
370
    0
100
AcDbCircle
 10
-588.8533325195312
 20
-170.0132656097412
 40
2.5
  0
CIRCLE
  5
41A
100
AcDbEntity
  8
Unnamed [1]
  6
CONTINUOUS
 62
    3
370
    0
100
AcDbCircle
 10
-568.8533325195312
 20
-150.0132656097412
 40
2.5
  0
CIRCLE
  5
41B
100
AcDbEntity
  8
Unnamed [1]
  6
CONTINUOUS
 62
    3
370
    0
100
AcDbCircle
 10
-608.8533325195312
 20
-170.0132656097411
 40
2.5
  0
CIRCLE
  5
41C
100
AcDbEntity
  8
Unnamed [1]
  6
CONTINUOUS
 62
    3
370
    0
100
AcDbCircle
 10
-568.8533325195312
 20
-170.0132656097412
 40
2.5
  0
CIRCLE
  5
41D
100
AcDbEntity
  8
Unnamed [1]
  6
CONTINUOUS
 62
    3
370
    0
100
AcDbCircle
 10
-588.8533325195312
 20
-170.0132656097412
 40
2.5
  0
CIRCLE
  5
41E
100
AcDbEntity
  8
Unnamed [1]
  6
CONTINUOUS
 62
    3
370
    0
100
AcDbCircle
 10
-548.8533325195312
 20
-150.0132656097412
 40
2.5
  0
CIRCLE
  5
41F
100
AcDbEntity
  8
Unnamed [1]
  6
CONTINUOUS
 62
    3
370
    0
100
AcDbCircle
 10
-568.8533325195312
 20
-150.0132656097412
 40
2.5
  0
CIRCLE
  5
420
100
AcDbEntity
  8
Unnamed [1]
  6
CONTINUOUS
 62
    3
370
    0
100
AcDbCircle
 10
-558.8533325195312
 20
-140.0132656097412
 40
2.5
  0
CIRCLE
  5
421
100
AcDbEntity
  8
Unnamed [1]
  6
CONTINUOUS
 62
    3
370
    0
100
AcDbCircle
 10
-578.8533325195312
 20
-140.0132656097412
 40
2.5
  0
CIRCLE
  5
422
100
AcDbEntity
  8
Unnamed [1]
  6
CONTINUOUS
 62
    3
370
    0
100
AcDbCircle
 10
-588.8533325195312
 20
-130.0132656097412
 40
2.5
  0
CIRCLE
  5
423
100
AcDbEntity
  8
Unnamed [1]
  6
CONTINUOUS
 62
    3
370
    0
100
AcDbCircle
 10
-588.8533325195312
 20
-130.0132656097412
 40
2.5
  0
CIRCLE
  5
424
100
AcDbEntity
  8
Unnamed [1]
  6
CONTINUOUS
 62
    3
370
    0
100
AcDbCircle
 10
-578.8533325195312
 20
-120.0132656097412
 40
2.5
  0
CIRCLE
  5
425
100
AcDbEntity
  8
Unnamed [1]
  6
CONTINUOUS
 62
    3
370
    0
100
AcDbCircle
 10
-628.8533325195312
 20
-130.0132656097412
 40
2.5
  0
CIRCLE
  5
426
100
AcDbEntity
  8
Unnamed [1]
  6
CONTINUOUS
 62
    3
370
    0
100
AcDbCircle
 10
-638.8533325195312
 20
-160.0132656097412
 40
2.5
  0
CIRCLE
  5
427
100
AcDbEntity
  8
Unnamed [1]
  6
CONTINUOUS
 62
    3
370
    0
100
AcDbCircle
 10
-638.8533325195312
 20
-180.0132656097411
 40
2.5
  0
CIRCLE
  5
428
100
AcDbEntity
  8
Unnamed [1]
  6
CONTINUOUS
 62
    3
370
    0
100
AcDbCircle
 10
-628.8533325195312
 20
-190.0132656097412
 40
2.5
  0
CIRCLE
  5
429
100
AcDbEntity
  8
Unnamed [1]
  6
CONTINUOUS
 62
    3
370
    0
100
AcDbCircle
 10
-618.8533325195315
 20
-200.0132656097411
 40
2.5
  0
CIRCLE
  5
42A
100
AcDbEntity
  8
Unnamed [1]
  6
CONTINUOUS
 62
    3
370
    0
100
AcDbCircle
 10
-608.8533325195312
 20
-210.0132656097412
 40
2.5
  0
CIRCLE
  5
42B
100
AcDbEntity
  8
Unnamed [1]
  6
CONTINUOUS
 62
    3
370
    0
100
AcDbCircle
 10
-618.8533325195312
 20
-140.0132656097412
 40
2.5
  0
CIRCLE
  5
42C
100
AcDbEntity
  8
Unnamed [1]
  6
CONTINUOUS
 62
    3
370
    0
100
AcDbCircle
 10
-588.8533325195312
 20
-110.0132656097412
 40
2.5
  0
CIRCLE
  5
42D
100
AcDbEntity
  8
Unnamed [1]
  6
CONTINUOUS
 62
    3
370
    0
100
AcDbCircle
 10
-538.8533325195312
 20
-180.0132656097412
 40
2.5
  0
CIRCLE
  5
42E
100
AcDbEntity
  8
Unnamed [1]
  6
CONTINUOUS
 62
    3
370
    0
100
AcDbCircle
 10
-638.8533325195312
 20
-140.0132656097412
 40
2.5
  0
CIRCLE
  5
42F
100
AcDbEntity
  8
Unnamed [1]
  6
CONTINUOUS
 62
    3
370
    0
100
AcDbCircle
 10
-578.8533325195312
 20
-200.0132656097412
 40
2.5
  0
CIRCLE
  5
430
100
AcDbEntity
  8
Unnamed [1]
  6
CONTINUOUS
 62
    3
370
    0
100
AcDbCircle
 10
-588.8533325195312
 20
-210.0132656097412
 40
2.5
  0
CIRCLE
  5
431
100
AcDbEntity
  8
Unnamed [1]
  6
CONTINUOUS
 62
    3
370
    0
100
AcDbCircle
 10
-598.8533325195312
 20
-210.0132656097412
 40
2.5
  0
CIRCLE
  5
432
100
AcDbEntity
  8
Unnamed [1]
  6
CONTINUOUS
 62
    3
370
    0
100
AcDbCircle
 10
-548.8533325195312
 20
-160.0132656097412
 40
2.5
  0
CIRCLE
  5
433
100
AcDbEntity
  8
Unnamed [1]
  6
CONTINUOUS
 62
    3
370
    0
100
AcDbCircle
 10
-548.8533325195312
 20
-150.0132656097412
 40
2.5
  0
CIRCLE
  5
434
100
AcDbEntity
  8
Unnamed [1]
  6
CONTINUOUS
 62
    3
370
    0
100
AcDbCircle
 10
-538.8533325195312
 20
-150.0132656097412
 40
2.5
  0
CIRCLE
  5
435
100
AcDbEntity
  8
Unnamed [1]
  6
CONTINUOUS
 62
    3
370
    0
100
AcDbCircle
 10
-538.8533325195312
 20
-140.0132656097412
 40
2.5
  0
CIRCLE
  5
436
100
AcDbEntity
  8
Unnamed [1]
  6
CONTINUOUS
 62
    3
370
    0
100
AcDbCircle
 10
-588.8533325195312
 20
-180.0132656097412
 40
2.5
  0
CIRCLE
  5
437
100
AcDbEntity
  8
Unnamed [1]
  6
CONTINUOUS
 62
    3
370
    0
100
AcDbCircle
 10
-598.8533325195312
 20
-120.0132656097412
 40
2.5
  0
CIRCLE
  5
438
100
AcDbEntity
  8
Unnamed [1]
  6
CONTINUOUS
 62
    3
370
    0
100
AcDbCircle
 10
-598.8533325195312
 20
-130.0132656097412
 40
2.5
  0
CIRCLE
  5
439
100
AcDbEntity
  8
Unnamed [1]
  6
CONTINUOUS
 62
    3
370
    0
100
AcDbCircle
 10
-598.8533325195312
 20
-130.0132656097412
 40
2.5
  0
CIRCLE
  5
43A
100
AcDbEntity
  8
Unnamed [1]
  6
CONTINUOUS
 62
    3
370
    0
100
AcDbCircle
 10
-608.8533325195312
 20
-170.0132656097412
 40
2.5
  0
CIRCLE
  5
43B
100
AcDbEntity
  8
Unnamed [1]
  6
CONTINUOUS
 62
    3
370
    0
100
AcDbCircle
 10
-608.8533325195312
 20
-180.0132656097412
 40
2.5
  0
CIRCLE
  5
43C
100
AcDbEntity
  8
Unnamed [1]
  6
CONTINUOUS
 62
    3
370
    0
100
AcDbCircle
 10
-608.8533325195312
 20
-190.0132656097412
 40
2.5
  0
CIRCLE
  5
43D
100
AcDbEntity
  8
Unnamed [1]
  6
CONTINUOUS
 62
    3
370
    0
100
AcDbCircle
 10
-568.8533325195312
 20
-210.0132656097412
 40
2.5
  0
CIRCLE
  5
43E
100
AcDbEntity
  8
Unnamed [1]
  6
CONTINUOUS
 62
    3
370
    0
100
AcDbCircle
 10
-568.8533325195312
 20
-110.0132656097412
 40
2.5
  0
CIRCLE
  5
43F
100
AcDbEntity
  8
Unnamed [1]
  6
CONTINUOUS
 62
    3
370
    0
100
AcDbCircle
 10
-568.8533325195312
 20
-120.0132656097412
 40
2.5
  0
CIRCLE
  5
440
100
AcDbEntity
  8
Unnamed [1]
  6
CONTINUOUS
 62
    3
370
    0
100
AcDbCircle
 10
-568.8533325195312
 20
-130.0132656097412
 40
2.5
  0
CIRCLE
  5
441
100
AcDbEntity
  8
Unnamed [1]
  6
CONTINUOUS
 62
    3
370
    0
100
AcDbCircle
 10
-568.8533325195312
 20
-130.0132656097412
 40
2.5
  0
CIRCLE
  5
442
100
AcDbEntity
  8
Unnamed [1]
  6
CONTINUOUS
 62
    3
370
    0
100
AcDbCircle
 10
-548.8533325195312
 20
-190.0132656097412
 40
2.5
  0
CIRCLE
  5
443
100
AcDbEntity
  8
Unnamed [1]
  6
CONTINUOUS
 62
    3
370
    0
100
AcDbCircle
 10
-558.8533325195312
 20
-170.0132656097412
 40
2.5
  0
CIRCLE
  5
444
100
AcDbEntity
  8
Unnamed [1]
  6
CONTINUOUS
 62
    3
370
    0
100
AcDbCircle
 10
-548.8533325195312
 20
-170.0132656097412
 40
2.5
  0
CIRCLE
  5
445
100
AcDbEntity
  8
Unnamed [1]
  6
CONTINUOUS
 62
    3
370
    0
100
AcDbCircle
 10
-548.8533325195312
 20
-170.0132656097412
 40
2.5
  0
CIRCLE
  5
446
100
AcDbEntity
  8
Unnamed [1]
  6
CONTINUOUS
 62
    3
370
    0
100
AcDbCircle
 10
-538.8533325195312
 20
-170.0132656097412
 40
2.5
  0
CIRCLE
  5
447
100
AcDbEntity
  8
Unnamed [1]
  6
CONTINUOUS
 62
    3
370
    0
100
AcDbCircle
 10
-558.8533325195312
 20
-120.0132656097412
 40
2.5
  0
CIRCLE
  5
448
100
AcDbEntity
  8
Unnamed [1]
  6
CONTINUOUS
 62
    3
370
    0
100
AcDbCircle
 10
-558.8533325195312
 20
-130.0132656097412
 40
2.5
  0
CIRCLE
  5
449
100
AcDbEntity
  8
Unnamed [1]
  6
CONTINUOUS
 62
    3
370
    0
100
AcDbCircle
 10
-548.8533325195312
 20
-190.0132656097412
 40
2.5
  0
CIRCLE
  5
44A
100
AcDbEntity
  8
Unnamed [1]
  6
CONTINUOUS
 62
    3
370
    0
100
AcDbCircle
 10
-548.8533325195312
 20
-180.0132656097412
 40
2.5
  0
CIRCLE
  5
44B
100
AcDbEntity
  8
Unnamed [1]
  6
CONTINUOUS
 62
    3
370
    0
100
AcDbCircle
 10
-578.8533325195312
 20
-160.0132656097412
 40
2.5
  0
CIRCLE
  5
44C
100
AcDbEntity
  8
Unnamed [1]
  6
CONTINUOUS
 62
    3
370
    0
100
AcDbCircle
 10
-568.8533325195312
 20
-160.0132656097412
 40
2.5
  0
CIRCLE
  5
44D
100
AcDbEntity
  8
Unnamed [1]
  6
CONTINUOUS
 62
    3
370
    0
100
AcDbCircle
 10
-558.8533325195312
 20
-160.0132656097412
 40
2.5
  0
CIRCLE
  5
44E
100
AcDbEntity
  8
Unnamed [1]
  6
CONTINUOUS
 62
    3
370
    0
100
AcDbCircle
 10
-558.8533325195312
 20
-150.0132656097412
 40
2.5
  0
CIRCLE
  5
44F
100
AcDbEntity
  8
Unnamed [1]
  6
CONTINUOUS
 62
    3
370
    0
100
AcDbCircle
 10
-548.8533325195312
 20
-140.0132656097412
 40
2.5
  0
CIRCLE
  5
450
100
AcDbEntity
  8
Unnamed [1]
  6
CONTINUOUS
 62
    3
370
    0
100
AcDbCircle
 10
-548.8533325195312
 20
-130.0132656097412
 40
2.5
  0
CIRCLE
  5
451
100
AcDbEntity
  8
Unnamed [1]
  6
CONTINUOUS
 62
    3
370
    0
100
AcDbCircle
 10
-588.8533325195312
 20
-140.0132656097412
 40
2.5
  0
CIRCLE
  5
452
100
AcDbEntity
  8
Unnamed [1]
  6
CONTINUOUS
 62
    3
370
    0
100
AcDbCircle
 10
-598.8533325195312
 20
-150.0132656097412
 40
2.5
  0
CIRCLE
  5
453
100
AcDbEntity
  8
Unnamed [1]
  6
CONTINUOUS
 62
    3
370
    0
100
AcDbCircle
 10
-588.8533325195312
 20
-150.0132656097412
 40
2.5
  0
CIRCLE
  5
454
100
AcDbEntity
  8
Unnamed [1]
  6
CONTINUOUS
 62
    3
370
    0
100
AcDbCircle
 10
-588.8533325195312
 20
-150.0132656097412
 40
2.5
  0
CIRCLE
  5
455
100
AcDbEntity
  8
Unnamed [1]
  6
CONTINUOUS
 62
    3
370
    0
100
AcDbCircle
 10
-588.8533325195312
 20
-160.0132656097412
 40
2.5
  0
CIRCLE
  5
456
100
AcDbEntity
  8
Unnamed [1]
  6
CONTINUOUS
 62
    3
370
    0
100
AcDbCircle
 10
-608.8533325195312
 20
-110.0132656097412
 40
2.5
  0
CIRCLE
  5
457
100
AcDbEntity
  8
Unnamed [1]
  6
CONTINUOUS
 62
    3
370
    0
100
AcDbCircle
 10
-608.8533325195315
 20
-200.0132656097411
 40
2.5
  0
CIRCLE
  5
458
100
AcDbEntity
  8
Unnamed [1]
  6
CONTINUOUS
 62
    3
370
    0
100
AcDbCircle
 10
-638.8533325195312
 20
-150.0132656097412
 40
2.5
  0
CIRCLE
  5
459
100
AcDbEntity
  8
Unnamed [1]
  6
CONTINUOUS
 62
    3
370
    0
100
AcDbCircle
 10
-246.5201325195312
 20
-505.0132656097412
 40
15
  0
CIRCLE
  5
45A
100
AcDbEntity
  8
Unnamed [1]
  6
CONTINUOUS
 62
    3
370
    0
100
AcDbCircle
 10
-171.1865325195313
 20
-505.0132656097412
 40
15
  0
CIRCLE
  5
45B
100
AcDbEntity
  8
Unnamed [1]
  6
CONTINUOUS
 62
    3
370
    0
100
AcDbCircle
 10
-134.5199325195313
 20
-505.0132656097412
 40
15
  0
CIRCLE
  5
45C
100
AcDbEntity
  8
Unnamed [1]
  6
CONTINUOUS
 62
    3
370
    0
100
AcDbCircle
 10
-384.5199325195312
 20
-505.0132656097411
 40
14.99999999999996
  0
CIRCLE
  5
45D
100
AcDbEntity
  8
Unnamed [1]
  6
CONTINUOUS
 62
    3
370
    0
100
AcDbCircle
 10
-421.1865325195312
 20
-505.0132656097411
 40
15
  0
CIRCLE
  5
45E
100
AcDbEntity
  8
Unnamed [1]
  6
CONTINUOUS
 62
    3
370
    0
100
AcDbCircle
 10
-496.5201325195312
 20
-505.0132656097412
 40
15.00000000000008
  0
CIRCLE
  5
45F
100
AcDbEntity
  8
Unnamed [1]
  6
CONTINUOUS
 62
    3
370
    0
100
AcDbCircle
 10
-533.1867325195312
 20
-505.0132656097412
 40
15.00000000000008
  0
CIRCLE
  5
460
100
AcDbEntity
  8
Unnamed [1]
  6
CONTINUOUS
 62
    3
370
    0
100
AcDbCircle
 10
-55.85333251953125
 20
-329.0132656097412
 40
3.999999999999998
  0
CIRCLE
  5
461
100
AcDbEntity
  8
Unnamed [1]
  6
CONTINUOUS
 62
    3
370
    0
100
AcDbCircle
 10
-42.35333251953125
 20
-329.0132656097412
 40
4
  0
CIRCLE
  5
462
100
AcDbEntity
  8
Unnamed [1]
  6
CONTINUOUS
 62
    3
370
    0
100
AcDbCircle
 10
-28.85333251953125
 20
-329.0132656097412
 40
3.999999999999999
  0
CIRCLE
  5
463
100
AcDbEntity
  8
Unnamed [1]
  6
CONTINUOUS
 62
    3
370
    0
100
AcDbCircle
 10
25.14666748046875
 20
-329.0132656097412
 40
4
  0
CIRCLE
  5
464
100
AcDbEntity
  8
Unnamed [1]
  6
CONTINUOUS
 62
    3
370
    0
100
AcDbCircle
 10
11.64666748046875
 20
-329.0132656097412
 40
4
  0
CIRCLE
  5
465
100
AcDbEntity
  8
Unnamed [1]
  6
CONTINUOUS
 62
    3
370
    0
100
AcDbCircle
 10
-1.85333251953125
 20
-329.0132656097412
 40
4
  0
CIRCLE
  5
466
100
AcDbEntity
  8
Unnamed [1]
  6
CONTINUOUS
 62
    3
370
    0
100
AcDbCircle
 10
-15.35333251953125
 20
-329.0132656097412
 40
4
  0
CIRCLE
  5
467
100
AcDbEntity
  8
Unnamed [1]
  6
CONTINUOUS
 62
    3
370
    0
100
AcDbCircle
 10
-28.85333251953125
 20
-329.0132656097412
 40
4
  0
CIRCLE
  5
468
100
AcDbEntity
  8
Unnamed [1]
  6
CONTINUOUS
 62
    3
370
    0
100
AcDbCircle
 10
-69.35333251953125
 20
-329.0132656097412
 40
3.999999999999997
  0
CIRCLE
  5
469
100
AcDbEntity
  8
Unnamed [1]
  6
CONTINUOUS
 62
    3
370
    0
100
AcDbCircle
 10
-82.85333251953125
 20
-329.0132656097412
 40
4.000000000000002
  0
CIRCLE
  5
46A
100
AcDbEntity
  8
Unnamed [1]
  6
CONTINUOUS
 62
    3
370
    0
100
AcDbCircle
 10
94.14666748046875
 20
-329.0132656097412
 40
3.999999999999998
  0
CIRCLE
  5
46B
100
AcDbEntity
  8
Unnamed [1]
  6
CONTINUOUS
 62
    3
370
    0
100
AcDbCircle
 10
107.6466674804688
 20
-329.0132656097412
 40
4
  0
CIRCLE
  5
46C
100
AcDbEntity
  8
Unnamed [1]
  6
CONTINUOUS
 62
    3
370
    0
100
AcDbCircle
 10
121.1466674804688
 20
-329.0132656097412
 40
3.999999999999999
  0
CIRCLE
  5
46D
100
AcDbEntity
  8
Unnamed [1]
  6
CONTINUOUS
 62
    3
370
    0
100
AcDbCircle
 10
175.1466674804688
 20
-329.0132656097412
 40
4
  0
CIRCLE
  5
46E
100
AcDbEntity
  8
Unnamed [1]
  6
CONTINUOUS
 62
    3
370
    0
100
AcDbCircle
 10
161.6466674804688
 20
-329.0132656097412
 40
4
  0
CIRCLE
  5
46F
100
AcDbEntity
  8
Unnamed [1]
  6
CONTINUOUS
 62
    3
370
    0
100
AcDbCircle
 10
148.1466674804688
 20
-329.0132656097412
 40
4
  0
CIRCLE
  5
470
100
AcDbEntity
  8
Unnamed [1]
  6
CONTINUOUS
 62
    3
370
    0
100
AcDbCircle
 10
134.6466674804688
 20
-329.0132656097412
 40
4
  0
CIRCLE
  5
471
100
AcDbEntity
  8
Unnamed [1]
  6
CONTINUOUS
 62
    3
370
    0
100
AcDbCircle
 10
121.1466674804688
 20
-329.0132656097412
 40
4
  0
CIRCLE
  5
472
100
AcDbEntity
  8
Unnamed [1]
  6
CONTINUOUS
 62
    3
370
    0
100
AcDbCircle
 10
80.64666748046875
 20
-329.0132656097412
 40
3.999999999999997
  0
CIRCLE
  5
473
100
AcDbEntity
  8
Unnamed [1]
  6
CONTINUOUS
 62
    3
370
    0
100
AcDbCircle
 10
67.14666748046875
 20
-329.0132656097412
 40
4.000000000000002
  0
CIRCLE
  5
474
100
AcDbEntity
  8
Unnamed [1]
  6
CONTINUOUS
 62
    3
370
    0
100
AcDbCircle
 10
421.1466674804688
 20
-329.0132656097412
 40
4
  0
CIRCLE
  5
475
100
AcDbEntity
  8
Unnamed [1]
  6
CONTINUOUS
 62
    3
370
    0
100
AcDbCircle
 10
434.6466674804688
 20
-329.0132656097412
 40
4
  0
CIRCLE
  5
476
100
AcDbEntity
  8
Unnamed [1]
  6
CONTINUOUS
 62
    3
370
    0
100
AcDbCircle
 10
448.1466674804688
 20
-329.0132656097412
 40
4
  0
CIRCLE
  5
477
100
AcDbEntity
  8
Unnamed [1]
  6
CONTINUOUS
 62
    3
370
    0
100
AcDbCircle
 10
421.1466674804688
 20
-329.0132656097412
 40
3.999999999999999
  0
CIRCLE
  5
478
100
AcDbEntity
  8
Unnamed [1]
  6
CONTINUOUS
 62
    3
370
    0
100
AcDbCircle
 10
407.6466674804688
 20
-329.0132656097412
 40
4
  0
CIRCLE
  5
479
100
AcDbEntity
  8
Unnamed [1]
  6
CONTINUOUS
 62
    3
370
    0
100
AcDbCircle
 10
394.1466674804688
 20
-329.0132656097412
 40
3.999999999999998
  0
CIRCLE
  5
47A
100
AcDbEntity
  8
Unnamed [1]
  6
CONTINUOUS
 62
    3
370
    0
100
AcDbCircle
 10
475.1466674804688
 20
-329.0132656097412
 40
4
  0
CIRCLE
  5
47B
100
AcDbEntity
  8
Unnamed [1]
  6
CONTINUOUS
 62
    3
370
    0
100
AcDbCircle
 10
461.6466674804688
 20
-329.0132656097412
 40
4
  0
CIRCLE
  5
47C
100
AcDbEntity
  8
Unnamed [1]
  6
CONTINUOUS
 62
    3
370
    0
100
AcDbCircle
 10
380.6466674804688
 20
-329.0132656097412
 40
3.999999999999997
  0
CIRCLE
  5
47D
100
AcDbEntity
  8
Unnamed [1]
  6
CONTINUOUS
 62
    3
370
    0
100
AcDbCircle
 10
367.1466674804688
 20
-329.0132656097412
 40
4.000000000000002
  0
CIRCLE
  5
47E
100
AcDbEntity
  8
Unnamed [1]
  6
CONTINUOUS
 62
    3
370
    0
100
AcDbCircle
 10
230.6466674804688
 20
-329.0132656097412
 40
3.999999999999997
  0
CIRCLE
  5
47F
100
AcDbEntity
  8
Unnamed [1]
  6
CONTINUOUS
 62
    3
370
    0
100
AcDbCircle
 10
271.1466674804688
 20
-329.0132656097412
 40
4
  0
CIRCLE
  5
480
100
AcDbEntity
  8
Unnamed [1]
  6
CONTINUOUS
 62
    3
370
    0
100
AcDbCircle
 10
257.6466674804688
 20
-329.0132656097412
 40
4
  0
CIRCLE
  5
481
100
AcDbEntity
  8
Unnamed [1]
  6
CONTINUOUS
 62
    3
370
    0
100
AcDbCircle
 10
271.1466674804688
 20
-329.0132656097412
 40
3.999999999999999
  0
CIRCLE
  5
482
100
AcDbEntity
  8
Unnamed [1]
  6
CONTINUOUS
 62
    3
370
    0
100
AcDbCircle
 10
284.6466674804688
 20
-329.0132656097412
 40
4
  0
CIRCLE
  5
483
100
AcDbEntity
  8
Unnamed [1]
  6
CONTINUOUS
 62
    3
370
    0
100
AcDbCircle
 10
244.1466674804688
 20
-329.0132656097412
 40
3.999999999999998
  0
CIRCLE
  5
484
100
AcDbEntity
  8
Unnamed [1]
  6
CONTINUOUS
 62
    3
370
    0
100
AcDbCircle
 10
298.1466674804688
 20
-329.0132656097412
 40
4
  0
CIRCLE
  5
485
100
AcDbEntity
  8
Unnamed [1]
  6
CONTINUOUS
 62
    3
370
    0
100
AcDbCircle
 10
325.1466674804688
 20
-329.0132656097412
 40
4
  0
CIRCLE
  5
486
100
AcDbEntity
  8
Unnamed [1]
  6
CONTINUOUS
 62
    3
370
    0
100
AcDbCircle
 10
311.6466674804688
 20
-329.0132656097412
 40
4
  0
CIRCLE
  5
487
100
AcDbEntity
  8
Unnamed [1]
  6
CONTINUOUS
 62
    3
370
    0
100
AcDbCircle
 10
217.1466674804688
 20
-329.0132656097412
 40
4.000000000000002
  0
CIRCLE
  5
488
100
AcDbEntity
  8
Unnamed [1]
  6
CONTINUOUS
 62
    3
370
    0
100
AcDbCircle
 10
-283.1867325195312
 20
-505.0132656097412
 40
15
  0
ENDBLK
  5
51
330
4F
100
AcDbEntity
  8
0
100
AcDbBlockEnd
  0
BLOCK
  5
53
330
52
100
AcDbEntity
  8
0
100
AcDbBlockBegin
  2
FP extras
 70
    0
 10
0
 20
0
  3
FP extras
  1

  0
LINE
  5
489
100
AcDbEntity
  8
Unnamed [1]
  6
CONTINUOUS
 62
    3
370
    0
100
AcDbLine
 10
-858.3994067382813
 20
-160.0103798675537
 11
-858.3994067382813
 21
-138.0103798675537
  0
LINE
  5
48A
100
AcDbEntity
  8
Unnamed [1]
  6
CONTINUOUS
 62
    3
370
    0
100
AcDbLine
 10
-868.8494067382812
 20
-239.0103798675537
 11
-688.8494067382812
 21
-239.0103798675537
  0
LINE
  5
48B
100
AcDbEntity
  8
Unnamed [1]
  6
CONTINUOUS
 62
    3
370
    0
100
AcDbLine
 10
-868.8494067382812
 20
-239.0103798675537
 11
-868.8494067382812
 21
-59.01037986755372
  0
LINE
  5
48C
100
AcDbEntity
  8
Unnamed [1]
  6
CONTINUOUS
 62
    3
370
    0
100
AcDbLine
 10
-688.8494067382812
 20
-239.0103798675537
 11
-688.8494067382812
 21
-59.01037986755372
  0
LINE
  5
48D
100
AcDbEntity
  8
Unnamed [1]
  6
CONTINUOUS
 62
    3
370
    0
100
AcDbLine
 10
-868.8494067382812
 20
-59.01037986755372
 11
-688.8494067382812
 21
-59.01037986755372
  0
LINE
  5
48E
100
AcDbEntity
  8
Unnamed [1]
  6
CONTINUOUS
 62
    3
370
    0
100
AcDbLine
 10
-688.8494067382812
 20
-164.0103798675537
 11
-688.8494067382812
 21
-94.01037986755372
  0
LINE
  5
48F
100
AcDbEntity
  8
Unnamed [1]
  6
CONTINUOUS
 62
    3
370
    0
100
AcDbLine
 10
-789.8494067382812
 20
-232.0603798675537
 11
-789.8494067382812
 21
-228.5603798675537
  0
LINE
  5
490
100
AcDbEntity
  8
Unnamed [1]
  6
CONTINUOUS
 62
    3
370
    0
100
AcDbLine
 10
-767.8494067382812
 20
-232.0603798675537
 11
-767.8494067382812
 21
-228.5603798675537
  0
LINE
  5
491
100
AcDbEntity
  8
Unnamed [1]
  6
CONTINUOUS
 62
    3
370
    0
100
AcDbLine
 10
-789.8494067382812
 20
-232.0603798675537
 11
-767.8494067382812
 21
-232.0603798675537
  0
LINE
  5
492
100
AcDbEntity
  8
Unnamed [1]
  6
CONTINUOUS
 62
    3
370
    0
100
AcDbLine
 10
-789.8494067382812
 20
-228.5603798675537
 11
-767.8494067382812
 21
-228.5603798675537
  0
LINE
  5
493
100
AcDbEntity
  8
Unnamed [1]
  6
CONTINUOUS
 62
    3
370
    0
100
AcDbLine
 10
-861.8994067382813
 20
-160.0103798675537
 11
-858.3994067382813
 21
-160.0103798675537
  0
LINE
  5
494
100
AcDbEntity
  8
Unnamed [1]
  6
CONTINUOUS
 62
    3
370
    0
100
AcDbLine
 10
-789.8494067382812
 20
-65.96037986755371
 11
-767.8494067382812
 21
-65.96037986755371
  0
LINE
  5
495
100
AcDbEntity
  8
Unnamed [1]
  6
CONTINUOUS
 62
    3
370
    0
100
AcDbLine
 10
-688.8494067382812
 20
-74.01037986755372
 11
-688.8494067382812
 21
-64.01037986755372
  0
LINE
  5
496
100
AcDbEntity
  8
Unnamed [1]
  6
CONTINUOUS
 62
    3
370
    0
100
AcDbLine
 10
-688.8494067382812
 20
-74.01037986755372
 11
-688.8494067382812
 21
-64.01037986755372
  0
LINE
  5
497
100
AcDbEntity
  8
Unnamed [1]
  6
CONTINUOUS
 62
    3
370
    0
100
AcDbLine
 10
-699.2994067382812
 20
-160.0103798675537
 11
-695.7994067382813
 21
-160.0103798675537
  0
LINE
  5
498
100
AcDbEntity
  8
Unnamed [1]
  6
CONTINUOUS
 62
    3
370
    0
100
AcDbLine
 10
-789.8494067382812
 20
-69.46037986755371
 11
-767.8494067382812
 21
-69.46037986755371
  0
LINE
  5
499
100
AcDbEntity
  8
Unnamed [1]
  6
CONTINUOUS
 62
    3
370
    0
100
AcDbLine
 10
-767.8494067382812
 20
-69.46037986755371
 11
-767.8494067382812
 21
-65.96037986755371
  0
LINE
  5
49A
100
AcDbEntity
  8
Unnamed [1]
  6
CONTINUOUS
 62
    3
370
    0
100
AcDbLine
 10
-695.7994067382813
 20
-160.0103798675537
 11
-695.7994067382813
 21
-138.0103798675537
  0
LINE
  5
49B
100
AcDbEntity
  8
Unnamed [1]
  6
CONTINUOUS
 62
    3
370
    0
100
AcDbLine
 10
-699.2994067382812
 20
-138.0103798675537
 11
-695.7994067382813
 21
-138.0103798675537
  0
LINE
  5
49C
100
AcDbEntity
  8
Unnamed [1]
  6
CONTINUOUS
 62
    3
370
    0
100
AcDbLine
 10
-861.8994067382813
 20
-160.0103798675537
 11
-861.8994067382813
 21
-138.0103798675537
  0
LINE
  5
49D
100
AcDbEntity
  8
Unnamed [1]
  6
CONTINUOUS
 62
    3
370
    0
100
AcDbLine
 10
-789.8494067382812
 20
-69.46037986755371
 11
-789.8494067382812
 21
-65.96037986755371
  0
LINE
  5
49E
100
AcDbEntity
  8
Unnamed [1]
  6
CONTINUOUS
 62
    3
370
    0
100
AcDbLine
 10
-699.2994067382812
 20
-160.0103798675537
 11
-699.2994067382812
 21
-138.0103798675537
  0
LINE
  5
49F
100
AcDbEntity
  8
Unnamed [1]
  6
CONTINUOUS
 62
    3
370
    0
100
AcDbLine
 10
-861.8994067382813
 20
-138.0103798675537
 11
-858.3994067382813
 21
-138.0103798675537
  0
LINE
  5
4A0
100
AcDbEntity
  8
Unnamed [1]
  6
CONTINUOUS
 62
    3
370
    0
100
AcDbLine
 10
-688.8494067382812
 20
-144.0103798675537
 11
-688.8494067382812
 21
-94.01037986755372
  0
CIRCLE
  5
4A1
100
AcDbEntity
  8
Unnamed [1]
  6
CONTINUOUS
 62
    3
370
    0
100
AcDbCircle
 10
-778.8494067382812
 20
-149.0103798675537
 40
64.5
  0
LINE
  5
4A2
100
AcDbEntity
  8
Unnamed [1]
  6
CONTINUOUS
 62
    3
370
    0
100
AcDbLine
 10
-510.2914690400755
 20
-271.4635873044616
 11
-507.2914690400755
 21
-271.4635873044616
  0
LINE
  5
4A3
100
AcDbEntity
  8
Unnamed [1]
  6
CONTINUOUS
 62
    3
370
    0
100
AcDbLine
 10
-510.2914690400755
 20
-271.4635873044616
 11
-510.2914690400755
 21
-251.4635873044616
  0
LINE
  5
4A4
100
AcDbEntity
  8
Unnamed [1]
  6
CONTINUOUS
 62
    3
370
    0
100
AcDbLine
 10
-507.2914690400755
 20
-271.4635873044616
 11
-507.2914690400755
 21
-251.4635873044616
  0
LINE
  5
4A5
100
AcDbEntity
  8
Unnamed [1]
  6
CONTINUOUS
 62
    3
370
    0
100
AcDbLine
 10
-507.2914690400755
 20
-251.4635873044616
 11
-397.7914690400756
 21
-251.4635873044616
  0
LINE
  5
4A6
100
AcDbEntity
  8
Unnamed [1]
  6
CONTINUOUS
 62
    3
370
    0
100
AcDbLine
 10
-397.7914690400756
 20
-291.4635873044616
 11
-397.7914690400756
 21
-251.4635873044616
  0
LINE
  5
4A7
100
AcDbEntity
  8
Unnamed [1]
  6
CONTINUOUS
 62
    3
370
    0
100
AcDbLine
 10
-619.7914690400755
 20
-291.4635873044616
 11
-619.7914690400755
 21
-251.4635873044616
  0
LINE
  5
4A8
100
AcDbEntity
  8
Unnamed [1]
  6
CONTINUOUS
 62
    3
370
    0
100
AcDbLine
 10
-869.7914690400755
 20
-251.4635873044616
 11
-869.7914690400755
 21
-291.4635873044616
  0
LINE
  5
4A9
100
AcDbEntity
  8
Unnamed [1]
  6
CONTINUOUS
 62
    3
370
    0
100
AcDbLine
 10
-869.7914690400755
 20
-251.4635873044616
 11
-647.7914690400755
 21
-251.4635873044616
  0
LINE
  5
4AA
100
AcDbEntity
  8
Unnamed [1]
  6
CONTINUOUS
 62
    3
370
    0
100
AcDbLine
 10
-647.7914690400755
 20
-251.4635873044616
 11
-647.7914690400755
 21
-291.4635873044616
  0
LINE
  5
4AB
100
AcDbEntity
  8
Unnamed [1]
  6
CONTINUOUS
 62
    3
370
    0
100
AcDbLine
 10
-760.2914690400755
 20
-271.4635873044616
 11
-757.2914690400755
 21
-271.4635873044616
  0
LINE
  5
4AC
100
AcDbEntity
  8
Unnamed [1]
  6
CONTINUOUS
 62
    3
370
    0
100
AcDbLine
 10
-757.2914690400755
 20
-291.4635873044616
 11
-647.7914690400755
 21
-291.4635873044616
  0
LINE
  5
4AD
100
AcDbEntity
  8
Unnamed [1]
  6
CONTINUOUS
 62
    3
370
    0
100
AcDbLine
 10
-757.2914690400755
 20
-271.4635873044616
 11
-757.2914690400755
 21
-291.4635873044616
  0
LINE
  5
4AE
100
AcDbEntity
  8
Unnamed [1]
  6
CONTINUOUS
 62
    3
370
    0
100
AcDbLine
 10
-760.2914690400755
 20
-271.4635873044616
 11
-760.2914690400755
 21
-291.4635873044616
  0
LINE
  5
4AF
100
AcDbEntity
  8
Unnamed [1]
  6
CONTINUOUS
 62
    3
370
    0
100
AcDbLine
 10
-869.7914690400755
 20
-291.4635873044616
 11
-760.2914690400755
 21
-291.4635873044616
  0
LINE
  5
4B0
100
AcDbEntity
  8
Unnamed [1]
  6
CONTINUOUS
 62
    3
370
    0
100
AcDbLine
 10
-619.7914690400755
 20
-251.4635873044616
 11
-510.2914690400755
 21
-251.4635873044616
  0
LINE
  5
4B1
100
AcDbEntity
  8
Unnamed [1]
  6
CONTINUOUS
 62
    3
370
    0
100
AcDbLine
 10
-619.7914690400755
 20
-291.4635873044616
 11
-397.7914690400755
 21
-291.4635873044616
  0
CIRCLE
  5
4B2
100
AcDbEntity
  8
Unnamed [1]
  6
CONTINUOUS
 62
    3
370
    0
100
AcDbCircle
 10
-546.4582690400755
 20
-271.4635873044616
 40
15
  0
CIRCLE
  5
4B3
100
AcDbEntity
  8
Unnamed [1]
  6
CONTINUOUS
 62
    3
370
    0
100
AcDbCircle
 10
-471.1246690400757
 20
-271.4635873044616
 40
15
  0
CIRCLE
  5
4B4
100
AcDbEntity
  8
Unnamed [1]
  6
CONTINUOUS
 62
    3
370
    0
100
AcDbCircle
 10
-434.4580690400757
 20
-271.4635873044616
 40
15
  0
CIRCLE
  5
4B5
100
AcDbEntity
  8
Unnamed [1]
  6
CONTINUOUS
 62
    3
370
    0
100
AcDbCircle
 10
-684.4580690400755
 20
-271.4635873044614
 40
14.99999999999996
  0
CIRCLE
  5
4B6
100
AcDbEntity
  8
Unnamed [1]
  6
CONTINUOUS
 62
    3
370
    0
100
AcDbCircle
 10
-721.1246690400756
 20
-271.4635873044614
 40
15
  0
CIRCLE
  5
4B7
100
AcDbEntity
  8
Unnamed [1]
  6
CONTINUOUS
 62
    3
370
    0
100
AcDbCircle
 10
-796.4582690400755
 20
-271.4635873044616
 40
15.00000000000008
  0
CIRCLE
  5
4B8
100
AcDbEntity
  8
Unnamed [1]
  6
CONTINUOUS
 62
    3
370
    0
100
AcDbCircle
 10
-833.1248690400755
 20
-271.4635873044616
 40
15.00000000000008
  0
CIRCLE
  5
4B9
100
AcDbEntity
  8
Unnamed [1]
  6
CONTINUOUS
 62
    3
370
    0
100
AcDbCircle
 10
-583.1248690400755
 20
-271.4635873044616
 40
15
  0
ENDBLK
  5
54
330
52
100
AcDbEntity
  8
0
100
AcDbBlockEnd
  0
BLOCK
  5
56
330
55
100
AcDbEntity
  8
0
100
AcDbBlockBegin
  2
James
 70
    0
 10
0
 20
0
  3
James
  1

  0
LINE
  5
4BA
100
AcDbEntity
  8
Unnamed [1]
  6
CONTINUOUS
 62
    3
370
    0
100
AcDbLine
 10
-262.873779296875
 20
-184.6357574462891
 11
37.12622070312494
 21
-184.6357574462891
  0
LINE
  5
4BB
100
AcDbEntity
  8
Unnamed [1]
  6
CONTINUOUS
 62
    3
370
    0
100
AcDbLine
 10
-262.873779296875
 20
-194.6357574462891
 11
299.126220703125
 21
-194.6357574462891
  0
LINE
  5
4BC
100
AcDbEntity
  8
Unnamed [1]
  6
CONTINUOUS
 62
    3
370
    0
100
AcDbLine
 10
-262.873779296875
 20
-314.6357574462891
 11
299.126220703125
 21
-314.6357574462891
  0
LINE
  5
4BD
100
AcDbEntity
  8
Unnamed [1]
  6
CONTINUOUS
 62
    3
370
    0
100
AcDbLine
 10
-262.873779296875
 20
-304.6357574462891
 11
299.126220703125
 21
-304.6357574462891
  0
LINE
  5
4BE
100
AcDbEntity
  8
Unnamed [1]
  6
CONTINUOUS
 62
    3
370
    0
100
AcDbLine
 10
-262.873779296875
 20
-364.6357574462891
 11
299.126220703125
 21
-364.6357574462891
  0
LINE
  5
4BF
100
AcDbEntity
  8
Unnamed [1]
  6
CONTINUOUS
 62
    3
370
    0
100
AcDbLine
 10
-262.873779296875
 20
-374.6357574462891
 11
299.126220703125
 21
-374.6357574462891
  0
LINE
  5
4C0
100
AcDbEntity
  8
Unnamed [1]
  6
CONTINUOUS
 62
    3
370
    0
100
AcDbLine
 10
-262.873779296875
 20
-424.6357574462891
 11
-262.873779296875
 21
-374.6357574462891
  0
LINE
  5
4C1
100
AcDbEntity
  8
Unnamed [1]
  6
CONTINUOUS
 62
    3
370
    0
100
AcDbLine
 10
-262.873779296875
 20
-424.6357574462891
 11
299.126220703125
 21
-424.6357574462891
  0
LINE
  5
4C2
100
AcDbEntity
  8
Unnamed [1]
  6
CONTINUOUS
 62
    3
370
    0
100
AcDbLine
 10
37.12622070312494
 20
-184.6357574462891
 11
37.12622070312494
 21
115.3642425537109
  0
LINE
  5
4C3
100
AcDbEntity
  8
Unnamed [1]
  6
CONTINUOUS
 62
    3
370
    0
100
AcDbLine
 10
153.3762207031249
 20
49.36424255371094
 11
244.6262207031249
 21
49.36424255371094
  0
LINE
  5
4C4
100
AcDbEntity
  8
Unnamed [1]
  6
CONTINUOUS
 62
    3
370
    0
100
AcDbLine
 10
201.5012207031249
 20
59.36424255371094
 11
249.6262207031249
 21
59.36424255371094
  0
LINE
  5
4C5
100
AcDbEntity
  8
Unnamed [1]
  6
CONTINUOUS
 62
    3
370
    0
100
AcDbLine
 10
47.12622070312494
 20
9.364242553710938
 11
267.1262207031249
 21
9.364242553710938
  0
LINE
  5
4C6
100
AcDbEntity
  8
Unnamed [1]
  6
CONTINUOUS
 62
    3
370
    0
100
AcDbLine
 10
201.5012207031249
 20
29.36424255371094
 11
249.6262207031249
 21
29.36424255371094
  0
LINE
  5
4C7
100
AcDbEntity
  8
Unnamed [1]
  6
CONTINUOUS
 62
    3
370
    0
100
AcDbLine
 10
249.6262207031249
 20
24.36424255371094
 11
249.6262207031249
 21
29.36424255371094
  0
LINE
  5
4C8
100
AcDbEntity
  8
Unnamed [1]
  6
CONTINUOUS
 62
    3
370
    0
100
AcDbLine
 10
47.12622070312494
 20
-20.63575744628906
 11
267.1262207031249
 21
-20.63575744628906
  0
LINE
  5
4C9
100
AcDbEntity
  8
Unnamed [1]
  6
CONTINUOUS
 62
    3
370
    0
100
AcDbLine
 10
-262.873779296875
 20
-184.6357574462891
 11
-262.873779296875
 21
115.3642425537109
  0
LINE
  5
4CA
100
AcDbEntity
  8
Unnamed [1]
  6
CONTINUOUS
 62
    3
370
    0
100
AcDbLine
 10
-262.873779296875
 20
-254.6357574462891
 11
299.126220703125
 21
-254.6357574462891
  0
LINE
  5
4CB
100
AcDbEntity
  8
Unnamed [1]
  6
CONTINUOUS
 62
    3
370
    0
100
AcDbLine
 10
299.126220703125
 20
-304.6357574462891
 11
299.126220703125
 21
-254.6357574462891
  0
LINE
  5
4CC
100
AcDbEntity
  8
Unnamed [1]
  6
CONTINUOUS
 62
    3
370
    0
100
AcDbLine
 10
299.126220703125
 20
-364.6357574462891
 11
299.126220703125
 21
-314.6357574462891
  0
LINE
  5
4CD
100
AcDbEntity
  8
Unnamed [1]
  6
CONTINUOUS
 62
    3
370
    0
100
AcDbLine
 10
-262.873779296875
 20
-244.6357574462891
 11
299.126220703125
 21
-244.6357574462891
  0
LINE
  5
4CE
100
AcDbEntity
  8
Unnamed [1]
  6
CONTINUOUS
 62
    3
370
    0
100
AcDbLine
 10
-262.873779296875
 20
-304.6357574462891
 11
-262.873779296875
 21
-254.6357574462891
  0
LINE
  5
4CF
100
AcDbEntity
  8
Unnamed [1]
  6
CONTINUOUS
 62
    3
370
    0
100
AcDbLine
 10
-262.873779296875
 20
-364.6357574462891
 11
-262.873779296875
 21
-314.6357574462891
  0
LINE
  5
4D0
100
AcDbEntity
  8
Unnamed [1]
  6
CONTINUOUS
 62
    3
370
    0
100
AcDbLine
 10
201.5012207031249
 20
59.36424255371094
 11
201.5012207031249
 21
69.36424255371094
  0
LINE
  5
4D1
100
AcDbEntity
  8
Unnamed [1]
  6
CONTINUOUS
 62
    3
370
    0
100
AcDbLine
 10
153.3762207031249
 20
69.36424255371094
 11
201.5012207031249
 21
69.36424255371094
  0
LINE
  5
4D2
100
AcDbEntity
  8
Unnamed [1]
  6
CONTINUOUS
 62
    3
370
    0
100
AcDbLine
 10
153.3762207031249
 20
49.36424255371094
 11
153.3762207031249
 21
69.36424255371094
  0
LINE
  5
4D3
100
AcDbEntity
  8
Unnamed [1]
  6
CONTINUOUS
 62
    3
370
    0
100
AcDbLine
 10
153.3762207031249
 20
19.36424255371094
 11
244.6262207031249
 21
19.36424255371094
  0
LINE
  5
4D4
100
AcDbEntity
  8
Unnamed [1]
  6
CONTINUOUS
 62
    3
370
    0
100
AcDbLine
 10
244.6262207031249
 20
19.36424255371094
 11
249.6262207031249
 21
24.36424255371094
  0
LINE
  5
4D5
100
AcDbEntity
  8
Unnamed [1]
  6
CONTINUOUS
 62
    3
370
    0
100
AcDbLine
 10
244.6262207031249
 20
49.36424255371094
 11
249.6262207031249
 21
54.36424255371094
  0
LINE
  5
4D6
100
AcDbEntity
  8
Unnamed [1]
  6
CONTINUOUS
 62
    3
370
    0
100
AcDbLine
 10
249.6262207031249
 20
54.36424255371094
 11
249.6262207031249
 21
59.36424255371094
  0
LINE
  5
4D7
100
AcDbEntity
  8
Unnamed [1]
  6
CONTINUOUS
 62
    3
370
    0
100
AcDbLine
 10
-262.873779296875
 20
115.3642425537109
 11
37.12622070312494
 21
115.3642425537109
  0
LINE
  5
4D8
100
AcDbEntity
  8
Unnamed [1]
  6
CONTINUOUS
 62
    3
370
    0
100
AcDbLine
 10
47.12622070312494
 20
19.36424255371094
 11
47.12622070312494
 21
39.36424255371094
  0
LINE
  5
4D9
100
AcDbEntity
  8
Unnamed [1]
  6
CONTINUOUS
 62
    3
370
    0
100
AcDbLine
 10
299.126220703125
 20
-424.6357574462891
 11
299.126220703125
 21
-374.6357574462891
  0
LINE
  5
4DA
100
AcDbEntity
  8
Unnamed [1]
  6
CONTINUOUS
 62
    3
370
    0
100
AcDbLine
 10
299.126220703125
 20
-244.6357574462891
 11
299.126220703125
 21
-194.6357574462891
  0
LINE
  5
4DB
100
AcDbEntity
  8
Unnamed [1]
  6
CONTINUOUS
 62
    3
370
    0
100
AcDbLine
 10
-262.873779296875
 20
-244.6357574462891
 11
-262.873779296875
 21
-194.6357574462891
  0
LINE
  5
4DC
100
AcDbEntity
  8
Unnamed [1]
  6
CONTINUOUS
 62
    3
370
    0
100
AcDbLine
 10
201.5012207031249
 20
29.36424255371094
 11
201.5012207031249
 21
39.36424255371094
  0
LINE
  5
4DD
100
AcDbEntity
  8
Unnamed [1]
  6
CONTINUOUS
 62
    3
370
    0
100
AcDbLine
 10
153.3762207031249
 20
39.36424255371094
 11
201.5012207031249
 21
39.36424255371094
  0
LINE
  5
4DE
100
AcDbEntity
  8
Unnamed [1]
  6
CONTINUOUS
 62
    3
370
    0
100
AcDbLine
 10
153.3762207031249
 20
19.36424255371094
 11
153.3762207031249
 21
39.36424255371094
  0
LINE
  5
4DF
100
AcDbEntity
  8
Unnamed [1]
  6
CONTINUOUS
 62
    3
370
    0
100
AcDbLine
 10
47.12622070312494
 20
49.36424255371094
 11
47.12622070312494
 21
69.36424255371094
  0
LINE
  5
4E0
100
AcDbEntity
  8
Unnamed [1]
  6
CONTINUOUS
 62
    3
370
    0
100
AcDbLine
 10
143.3762207031249
 20
24.36424255371094
 11
143.3762207031249
 21
29.36424255371094
  0
LINE
  5
4E1
100
AcDbEntity
  8
Unnamed [1]
  6
CONTINUOUS
 62
    3
370
    0
100
AcDbLine
 10
47.12622070312494
 20
69.36424255371094
 11
95.25122070312494
 21
69.36424255371094
  0
LINE
  5
4E2
100
AcDbEntity
  8
Unnamed [1]
  6
CONTINUOUS
 62
    3
370
    0
100
AcDbLine
 10
143.3762207031249
 20
54.36424255371094
 11
143.3762207031249
 21
59.36424255371094
  0
LINE
  5
4E3
100
AcDbEntity
  8
Unnamed [1]
  6
CONTINUOUS
 62
    3
370
    0
100
AcDbLine
 10
138.3762207031249
 20
49.36424255371094
 11
143.3762207031249
 21
54.36424255371094
  0
LINE
  5
4E4
100
AcDbEntity
  8
Unnamed [1]
  6
CONTINUOUS
 62
    3
370
    0
100
AcDbLine
 10
95.25122070312494
 20
59.36424255371094
 11
95.25122070312494
 21
69.36424255371094
  0
LINE
  5
4E5
100
AcDbEntity
  8
Unnamed [1]
  6
CONTINUOUS
 62
    3
370
    0
100
AcDbLine
 10
47.12622070312494
 20
39.36424255371094
 11
95.25122070312494
 21
39.36424255371094
  0
LINE
  5
4E6
100
AcDbEntity
  8
Unnamed [1]
  6
CONTINUOUS
 62
    3
370
    0
100
AcDbLine
 10
138.3762207031249
 20
19.36424255371094
 11
143.3762207031249
 21
24.36424255371094
  0
LINE
  5
4E7
100
AcDbEntity
  8
Unnamed [1]
  6
CONTINUOUS
 62
    3
370
    0
100
AcDbLine
 10
95.25122070312494
 20
29.36424255371094
 11
95.25122070312494
 21
39.36424255371094
  0
LINE
  5
4E8
100
AcDbEntity
  8
Unnamed [1]
  6
CONTINUOUS
 62
    3
370
    0
100
AcDbLine
 10
95.25122070312494
 20
29.36424255371094
 11
143.3762207031249
 21
29.36424255371094
  0
LINE
  5
4E9
100
AcDbEntity
  8
Unnamed [1]
  6
CONTINUOUS
 62
    3
370
    0
100
AcDbLine
 10
47.12622070312494
 20
19.36424255371094
 11
138.3762207031249
 21
19.36424255371094
  0
LINE
  5
4EA
100
AcDbEntity
  8
Unnamed [1]
  6
CONTINUOUS
 62
    3
370
    0
100
AcDbLine
 10
47.12622070312494
 20
49.36424255371094
 11
138.3762207031249
 21
49.36424255371094
  0
LINE
  5
4EB
100
AcDbEntity
  8
Unnamed [1]
  6
CONTINUOUS
 62
    3
370
    0
100
AcDbLine
 10
95.25122070312494
 20
59.36424255371094
 11
143.3762207031249
 21
59.36424255371094
  0
ARC
  5
4EC
100
AcDbEntity
  8
Unnamed [1]
  6
CONTINUOUS
 62
    3
370
    0
100
AcDbCircle
 10
287.1262207031249
 20
-5.635757446289062
 40
25
100
AcDbArc
 50
143.1301023541562
 51
216.8698976458438
  0
ARC
  5
4ED
100
AcDbEntity
  8
Unnamed [1]
  6
CONTINUOUS
 62
    3
370
    0
100
AcDbCircle
 10
27.12622070312494
 20
-5.635757446289062
 40
25
100
AcDbArc
 50
323.130102354156
 51
36.86989764584402
  0
CIRCLE
  5
4EE
100
AcDbEntity
  8
Unnamed [1]
  6
CONTINUOUS
 62
    3
370
    0
100
AcDbCircle
 10
124.1262207031249
 20
-107.6357574462891
 40
77
  0
CIRCLE
  5
4EF
100
AcDbEntity
  8
Unnamed [1]
  6
CONTINUOUS
 62
    3
370
    0
100
AcDbCircle
 10
-112.873779296875
 20
-34.63575744628906
 40
64
  0
CIRCLE
  5
4F0
100
AcDbEntity
  8
Unnamed [1]
  6
CONTINUOUS
 62
    3
370
    0
100
AcDbCircle
 10
-237.873779296875
 20
-339.6357574462891
 40
4.5
  0
CIRCLE
  5
4F1
100
AcDbEntity
  8
Unnamed [1]
  6
CONTINUOUS
 62
    3
370
    0
100
AcDbCircle
 10
-237.873779296875
 20
-279.6357574462891
 40
4.5
  0
CIRCLE
  5
4F2
100
AcDbEntity
  8
Unnamed [1]
  6
CONTINUOUS
 62
    3
370
    0
100
AcDbCircle
 10
124.1262207031249
 20
-107.6357574462891
 40
64
  0
CIRCLE
  5
4F3
100
AcDbEntity
  8
Unnamed [1]
  6
CONTINUOUS
 62
    3
370
    0
100
AcDbCircle
 10
12.12622070312494
 20
-34.63575744628906
 40
4.5
  0
CIRCLE
  5
4F4
100
AcDbEntity
  8
Unnamed [1]
  6
CONTINUOUS
 62
    3
370
    0
100
AcDbCircle
 10
-112.873779296875
 20
-159.6357574462891
 40
4.5
  0
CIRCLE
  5
4F5
100
AcDbEntity
  8
Unnamed [1]
  6
CONTINUOUS
 62
    3
370
    0
100
AcDbCircle
 10
-237.873779296875
 20
-399.6357574462891
 40
4.5
  0
CIRCLE
  5
4F6
100
AcDbEntity
  8
Unnamed [1]
  6
CONTINUOUS
 62
    3
370
    0
100
AcDbCircle
 10
-112.873779296875
 20
90.36424255371094
 40
4.5
  0
CIRCLE
  5
4F7
100
AcDbEntity
  8
Unnamed [1]
  6
CONTINUOUS
 62
    3
370
    0
100
AcDbCircle
 10
-237.873779296875
 20
-219.6357574462891
 40
4.5
  0
CIRCLE
  5
4F8
100
AcDbEntity
  8
Unnamed [1]
  6
CONTINUOUS
 62
    3
370
    0
100
AcDbCircle
 10
-237.873779296875
 20
-34.63575744628906
 40
4.5
  0
ENDBLK
  5
57
330
55
100
AcDbEntity
  8
0
100
AcDbBlockEnd
  0
BLOCK
  5
59
330
58
100
AcDbEntity
  8
0
100
AcDbBlockBegin
  2
FP extras-0
 70
    0
 10
0
 20
0
  3
FP extras-0
  1

  0
LINE
  5
4F9
100
AcDbEntity
  8
Unnamed [1]
  6
CONTINUOUS
 62
    3
370
    0
100
AcDbLine
 10
-858.3994067382813
 20
-160.0103798675537
 11
-858.3994067382813
 21
-138.0103798675537
  0
LINE
  5
4FA
100
AcDbEntity
  8
Unnamed [1]
  6
CONTINUOUS
 62
    3
370
    0
100
AcDbLine
 10
-868.8494067382812
 20
-239.0103798675537
 11
-688.8494067382812
 21
-239.0103798675537
  0
LINE
  5
4FB
100
AcDbEntity
  8
Unnamed [1]
  6
CONTINUOUS
 62
    3
370
    0
100
AcDbLine
 10
-868.8494067382812
 20
-239.0103798675537
 11
-868.8494067382812
 21
-59.01037986755372
  0
LINE
  5
4FC
100
AcDbEntity
  8
Unnamed [1]
  6
CONTINUOUS
 62
    3
370
    0
100
AcDbLine
 10
-688.8494067382812
 20
-239.0103798675537
 11
-688.8494067382812
 21
-59.01037986755372
  0
LINE
  5
4FD
100
AcDbEntity
  8
Unnamed [1]
  6
CONTINUOUS
 62
    3
370
    0
100
AcDbLine
 10
-868.8494067382812
 20
-59.01037986755372
 11
-688.8494067382812
 21
-59.01037986755372
  0
LINE
  5
4FE
100
AcDbEntity
  8
Unnamed [1]
  6
CONTINUOUS
 62
    3
370
    0
100
AcDbLine
 10
-688.8494067382812
 20
-164.0103798675537
 11
-688.8494067382812
 21
-94.01037986755372
  0
LINE
  5
4FF
100
AcDbEntity
  8
Unnamed [1]
  6
CONTINUOUS
 62
    3
370
    0
100
AcDbLine
 10
-789.8494067382812
 20
-232.0603798675537
 11
-789.8494067382812
 21
-228.5603798675537
  0
LINE
  5
500
100
AcDbEntity
  8
Unnamed [1]
  6
CONTINUOUS
 62
    3
370
    0
100
AcDbLine
 10
-767.8494067382812
 20
-232.0603798675537
 11
-767.8494067382812
 21
-228.5603798675537
  0
LINE
  5
501
100
AcDbEntity
  8
Unnamed [1]
  6
CONTINUOUS
 62
    3
370
    0
100
AcDbLine
 10
-789.8494067382812
 20
-232.0603798675537
 11
-767.8494067382812
 21
-232.0603798675537
  0
LINE
  5
502
100
AcDbEntity
  8
Unnamed [1]
  6
CONTINUOUS
 62
    3
370
    0
100
AcDbLine
 10
-789.8494067382812
 20
-228.5603798675537
 11
-767.8494067382812
 21
-228.5603798675537
  0
LINE
  5
503
100
AcDbEntity
  8
Unnamed [1]
  6
CONTINUOUS
 62
    3
370
    0
100
AcDbLine
 10
-861.8994067382813
 20
-160.0103798675537
 11
-858.3994067382813
 21
-160.0103798675537
  0
LINE
  5
504
100
AcDbEntity
  8
Unnamed [1]
  6
CONTINUOUS
 62
    3
370
    0
100
AcDbLine
 10
-789.8494067382812
 20
-65.96037986755371
 11
-767.8494067382812
 21
-65.96037986755371
  0
LINE
  5
505
100
AcDbEntity
  8
Unnamed [1]
  6
CONTINUOUS
 62
    3
370
    0
100
AcDbLine
 10
-688.8494067382812
 20
-74.01037986755372
 11
-688.8494067382812
 21
-64.01037986755372
  0
LINE
  5
506
100
AcDbEntity
  8
Unnamed [1]
  6
CONTINUOUS
 62
    3
370
    0
100
AcDbLine
 10
-688.8494067382812
 20
-74.01037986755372
 11
-688.8494067382812
 21
-64.01037986755372
  0
LINE
  5
507
100
AcDbEntity
  8
Unnamed [1]
  6
CONTINUOUS
 62
    3
370
    0
100
AcDbLine
 10
-699.2994067382812
 20
-160.0103798675537
 11
-695.7994067382813
 21
-160.0103798675537
  0
LINE
  5
508
100
AcDbEntity
  8
Unnamed [1]
  6
CONTINUOUS
 62
    3
370
    0
100
AcDbLine
 10
-789.8494067382812
 20
-69.46037986755371
 11
-767.8494067382812
 21
-69.46037986755371
  0
LINE
  5
509
100
AcDbEntity
  8
Unnamed [1]
  6
CONTINUOUS
 62
    3
370
    0
100
AcDbLine
 10
-767.8494067382812
 20
-69.46037986755371
 11
-767.8494067382812
 21
-65.96037986755371
  0
LINE
  5
50A
100
AcDbEntity
  8
Unnamed [1]
  6
CONTINUOUS
 62
    3
370
    0
100
AcDbLine
 10
-695.7994067382813
 20
-160.0103798675537
 11
-695.7994067382813
 21
-138.0103798675537
  0
LINE
  5
50B
100
AcDbEntity
  8
Unnamed [1]
  6
CONTINUOUS
 62
    3
370
    0
100
AcDbLine
 10
-699.2994067382812
 20
-138.0103798675537
 11
-695.7994067382813
 21
-138.0103798675537
  0
LINE
  5
50C
100
AcDbEntity
  8
Unnamed [1]
  6
CONTINUOUS
 62
    3
370
    0
100
AcDbLine
 10
-861.8994067382813
 20
-160.0103798675537
 11
-861.8994067382813
 21
-138.0103798675537
  0
LINE
  5
50D
100
AcDbEntity
  8
Unnamed [1]
  6
CONTINUOUS
 62
    3
370
    0
100
AcDbLine
 10
-789.8494067382812
 20
-69.46037986755371
 11
-789.8494067382812
 21
-65.96037986755371
  0
LINE
  5
50E
100
AcDbEntity
  8
Unnamed [1]
  6
CONTINUOUS
 62
    3
370
    0
100
AcDbLine
 10
-699.2994067382812
 20
-160.0103798675537
 11
-699.2994067382812
 21
-138.0103798675537
  0
LINE
  5
50F
100
AcDbEntity
  8
Unnamed [1]
  6
CONTINUOUS
 62
    3
370
    0
100
AcDbLine
 10
-861.8994067382813
 20
-138.0103798675537
 11
-858.3994067382813
 21
-138.0103798675537
  0
LINE
  5
510
100
AcDbEntity
  8
Unnamed [1]
  6
CONTINUOUS
 62
    3
370
    0
100
AcDbLine
 10
-688.8494067382812
 20
-144.0103798675537
 11
-688.8494067382812
 21
-94.01037986755372
  0
CIRCLE
  5
511
100
AcDbEntity
  8
Unnamed [1]
  6
CONTINUOUS
 62
    3
370
    0
100
AcDbCircle
 10
-778.8494067382812
 20
-149.0103798675537
 40
64.5
  0
LINE
  5
512
100
AcDbEntity
  8
Unnamed [1]
  6
CONTINUOUS
 62
    3
370
    0
100
AcDbLine
 10
-680.9490054212941
 20
-60.8100161851072
 11
-680.9490054212941
 21
-100.8100161851072
  0
LINE
  5
513
100
AcDbEntity
  8
Unnamed [1]
  6
CONTINUOUS
 62
    3
370
    0
100
AcDbLine
 10
-680.9490054212941
 20
-60.8100161851072
 11
-458.9490054212941
 21
-60.8100161851072
  0
LINE
  5
514
100
AcDbEntity
  8
Unnamed [1]
  6
CONTINUOUS
 62
    3
370
    0
100
AcDbLine
 10
-458.9490054212941
 20
-60.8100161851072
 11
-458.9490054212941
 21
-100.8100161851072
  0
LINE
  5
515
100
AcDbEntity
  8
Unnamed [1]
  6
CONTINUOUS
 62
    3
370
    0
100
AcDbLine
 10
-571.4490054212941
 20
-80.8100161851072
 11
-568.4490054212941
 21
-80.8100161851072
  0
LINE
  5
516
100
AcDbEntity
  8
Unnamed [1]
  6
CONTINUOUS
 62
    3
370
    0
100
AcDbLine
 10
-568.4490054212941
 20
-100.8100161851072
 11
-458.9490054212941
 21
-100.8100161851072
  0
LINE
  5
517
100
AcDbEntity
  8
Unnamed [1]
  6
CONTINUOUS
 62
    3
370
    0
100
AcDbLine
 10
-568.4490054212941
 20
-80.8100161851072
 11
-568.4490054212941
 21
-100.8100161851072
  0
LINE
  5
518
100
AcDbEntity
  8
Unnamed [1]
  6
CONTINUOUS
 62
    3
370
    0
100
AcDbLine
 10
-571.4490054212941
 20
-80.8100161851072
 11
-571.4490054212941
 21
-100.8100161851072
  0
LINE
  5
519
100
AcDbEntity
  8
Unnamed [1]
  6
CONTINUOUS
 62
    3
370
    0
100
AcDbLine
 10
-680.9490054212941
 20
-100.8100161851072
 11
-571.4490054212941
 21
-100.8100161851072
  0
CIRCLE
  5
51A
100
AcDbEntity
  8
Unnamed [1]
  6
CONTINUOUS
 62
    3
370
    0
100
AcDbCircle
 10
-495.6156054212942
 20
-80.81001618510709
 40
14.99999999999996
  0
CIRCLE
  5
51B
100
AcDbEntity
  8
Unnamed [1]
  6
CONTINUOUS
 62
    3
370
    0
100
AcDbCircle
 10
-532.2822054212942
 20
-80.81001618510709
 40
15
  0
CIRCLE
  5
51C
100
AcDbEntity
  8
Unnamed [1]
  6
CONTINUOUS
 62
    3
370
    0
100
AcDbCircle
 10
-607.6158054212941
 20
-80.8100161851072
 40
15.00000000000008
  0
CIRCLE
  5
51D
100
AcDbEntity
  8
Unnamed [1]
  6
CONTINUOUS
 62
    3
370
    0
100
AcDbCircle
 10
-644.2824054212941
 20
-80.8100161851072
 40
15.00000000000008
  0
LINE
  5
51E
100
AcDbEntity
  8
Unnamed [1]
  6
CONTINUOUS
 62
    3
370
    0
100
AcDbLine
 10
-570.0251441081207
 20
-129.8435549342474
 11
-567.0251441081207
 21
-129.8435549342474
  0
LINE
  5
51F
100
AcDbEntity
  8
Unnamed [1]
  6
CONTINUOUS
 62
    3
370
    0
100
AcDbLine
 10
-570.0251441081207
 20
-129.8435549342474
 11
-570.0251441081207
 21
-109.8435549342474
  0
LINE
  5
520
100
AcDbEntity
  8
Unnamed [1]
  6
CONTINUOUS
 62
    3
370
    0
100
AcDbLine
 10
-567.0251441081207
 20
-129.8435549342474
 11
-567.0251441081207
 21
-109.8435549342474
  0
LINE
  5
521
100
AcDbEntity
  8
Unnamed [1]
  6
CONTINUOUS
 62
    3
370
    0
100
AcDbLine
 10
-567.0251441081207
 20
-109.8435549342474
 11
-457.5251441081207
 21
-109.8435549342474
  0
LINE
  5
522
100
AcDbEntity
  8
Unnamed [1]
  6
CONTINUOUS
 62
    3
370
    0
100
AcDbLine
 10
-457.5251441081207
 20
-149.8435549342474
 11
-457.5251441081207
 21
-109.8435549342474
  0
LINE
  5
523
100
AcDbEntity
  8
Unnamed [1]
  6
CONTINUOUS
 62
    3
370
    0
100
AcDbLine
 10
-679.5251441081207
 20
-149.8435549342474
 11
-679.5251441081207
 21
-109.8435549342474
  0
LINE
  5
524
100
AcDbEntity
  8
Unnamed [1]
  6
CONTINUOUS
 62
    3
370
    0
100
AcDbLine
 10
-679.5251441081207
 20
-109.8435549342474
 11
-570.0251441081207
 21
-109.8435549342474
  0
LINE
  5
525
100
AcDbEntity
  8
Unnamed [1]
  6
CONTINUOUS
 62
    3
370
    0
100
AcDbLine
 10
-679.5251441081207
 20
-149.8435549342474
 11
-457.5251441081207
 21
-149.8435549342474
  0
CIRCLE
  5
526
100
AcDbEntity
  8
Unnamed [1]
  6
CONTINUOUS
 62
    3
370
    0
100
AcDbCircle
 10
-606.1919441081207
 20
-129.8435549342474
 40
15
  0
CIRCLE
  5
527
100
AcDbEntity
  8
Unnamed [1]
  6
CONTINUOUS
 62
    3
370
    0
100
AcDbCircle
 10
-530.8583441081208
 20
-129.8435549342474
 40
15
  0
CIRCLE
  5
528
100
AcDbEntity
  8
Unnamed [1]
  6
CONTINUOUS
 62
    3
370
    0
100
AcDbCircle
 10
-494.1917441081208
 20
-129.8435549342474
 40
15
  0
CIRCLE
  5
529
100
AcDbEntity
  8
Unnamed [1]
  6
CONTINUOUS
 62
    3
370
    0
100
AcDbCircle
 10
-642.8585441081207
 20
-129.8435549342474
 40
15
  0
ENDBLK
  5
5A
330
58
100
AcDbEntity
  8
0
100
AcDbBlockEnd
  0
BLOCK
  5
5C
330
5B
100
AcDbEntity
  8
0
100
AcDbBlockBegin
  2
Cross piece
 70
    0
 10
0
 20
0
  3
Cross piece
  1

  0
LINE
  5
52A
100
AcDbEntity
  8
Unnamed [1]
  6
CONTINUOUS
 62
    3
370
    0
100
AcDbLine
 10
-569.8533325195312
 20
-485.0132656097412
 11
-569.8533325195312
 21
-525.0132656097412
  0
LINE
  5
52B
100
AcDbEntity
  8
Unnamed [1]
  6
CONTINUOUS
 62
    3
370
    0
100
AcDbLine
 10
-569.8533325195312
 20
-485.0132656097412
 11
-347.8533325195312
 21
-485.0132656097412
  0
LINE
  5
52C
100
AcDbEntity
  8
Unnamed [1]
  6
CONTINUOUS
 62
    3
370
    0
100
AcDbLine
 10
-347.8533325195312
 20
-485.0132656097412
 11
-347.8533325195312
 21
-525.0132656097412
  0
LINE
  5
52D
100
AcDbEntity
  8
Unnamed [1]
  6
CONTINUOUS
 62
    3
370
    0
100
AcDbLine
 10
-460.3533325195312
 20
-505.0132656097412
 11
-457.3533325195312
 21
-505.0132656097412
  0
LINE
  5
52E
100
AcDbEntity
  8
Unnamed [1]
  6
CONTINUOUS
 62
    3
370
    0
100
AcDbLine
 10
-457.3533325195312
 20
-525.0132656097412
 11
-347.8533325195312
 21
-525.0132656097412
  0
LINE
  5
52F
100
AcDbEntity
  8
Unnamed [1]
  6
CONTINUOUS
 62
    3
370
    0
100
AcDbLine
 10
-457.3533325195312
 20
-505.0132656097412
 11
-457.3533325195312
 21
-525.0132656097412
  0
LINE
  5
530
100
AcDbEntity
  8
Unnamed [1]
  6
CONTINUOUS
 62
    3
370
    0
100
AcDbLine
 10
-460.3533325195312
 20
-505.0132656097412
 11
-460.3533325195312
 21
-525.0132656097412
  0
LINE
  5
531
100
AcDbEntity
  8
Unnamed [1]
  6
CONTINUOUS
 62
    3
370
    0
100
AcDbLine
 10
-569.8533325195312
 20
-525.0132656097412
 11
-460.3533325195312
 21
-525.0132656097412
  0
CIRCLE
  5
532
100
AcDbEntity
  8
Unnamed [1]
  6
CONTINUOUS
 62
    3
370
    0
100
AcDbCircle
 10
-384.5199325195312
 20
-505.0132656097411
 40
14.99999999999996
  0
CIRCLE
  5
533
100
AcDbEntity
  8
Unnamed [1]
  6
CONTINUOUS
 62
    3
370
    0
100
AcDbCircle
 10
-421.1865325195312
 20
-505.0132656097411
 40
15
  0
CIRCLE
  5
534
100
AcDbEntity
  8
Unnamed [1]
  6
CONTINUOUS
 62
    3
370
    0
100
AcDbCircle
 10
-496.5201325195312
 20
-505.0132656097412
 40
15.00000000000008
  0
CIRCLE
  5
535
100
AcDbEntity
  8
Unnamed [1]
  6
CONTINUOUS
 62
    3
370
    0
100
AcDbCircle
 10
-533.1867325195312
 20
-505.0132656097412
 40
15.00000000000008
  0
ENDBLK
  5
5D
330
5B
100
AcDbEntity
  8
0
100
AcDbBlockEnd
  0
BLOCK
  5
5F
330
5E
100
AcDbEntity
  8
0
100
AcDbBlockBegin
  2
Cross piece-0
 70
    0
 10
0
 20
0
  3
Cross piece-0
  1

  0
LINE
  5
536
100
AcDbEntity
  8
Unnamed [1]
  6
CONTINUOUS
 62
    3
370
    0
100
AcDbLine
 10
-569.8533325195312
 20
-485.0132656097412
 11
-569.8533325195312
 21
-525.0132656097412
  0
LINE
  5
537
100
AcDbEntity
  8
Unnamed [1]
  6
CONTINUOUS
 62
    3
370
    0
100
AcDbLine
 10
-569.8533325195312
 20
-485.0132656097412
 11
-347.8533325195312
 21
-485.0132656097412
  0
LINE
  5
538
100
AcDbEntity
  8
Unnamed [1]
  6
CONTINUOUS
 62
    3
370
    0
100
AcDbLine
 10
-347.8533325195312
 20
-485.0132656097412
 11
-347.8533325195312
 21
-525.0132656097412
  0
LINE
  5
539
100
AcDbEntity
  8
Unnamed [1]
  6
CONTINUOUS
 62
    3
370
    0
100
AcDbLine
 10
-460.3533325195312
 20
-505.0132656097412
 11
-457.3533325195312
 21
-505.0132656097412
  0
LINE
  5
53A
100
AcDbEntity
  8
Unnamed [1]
  6
CONTINUOUS
 62
    3
370
    0
100
AcDbLine
 10
-457.3533325195312
 20
-525.0132656097412
 11
-347.8533325195312
 21
-525.0132656097412
  0
LINE
  5
53B
100
AcDbEntity
  8
Unnamed [1]
  6
CONTINUOUS
 62
    3
370
    0
100
AcDbLine
 10
-457.3533325195312
 20
-505.0132656097412
 11
-457.3533325195312
 21
-525.0132656097412
  0
LINE
  5
53C
100
AcDbEntity
  8
Unnamed [1]
  6
CONTINUOUS
 62
    3
370
    0
100
AcDbLine
 10
-460.3533325195312
 20
-505.0132656097412
 11
-460.3533325195312
 21
-525.0132656097412
  0
LINE
  5
53D
100
AcDbEntity
  8
Unnamed [1]
  6
CONTINUOUS
 62
    3
370
    0
100
AcDbLine
 10
-569.8533325195312
 20
-525.0132656097412
 11
-460.3533325195312
 21
-525.0132656097412
  0
CIRCLE
  5
53E
100
AcDbEntity
  8
Unnamed [1]
  6
CONTINUOUS
 62
    3
370
    0
100
AcDbCircle
 10
-384.5199325195312
 20
-505.0132656097411
 40
14.99999999999996
  0
CIRCLE
  5
53F
100
AcDbEntity
  8
Unnamed [1]
  6
CONTINUOUS
 62
    3
370
    0
100
AcDbCircle
 10
-421.1865325195312
 20
-505.0132656097411
 40
15
  0
CIRCLE
  5
540
100
AcDbEntity
  8
Unnamed [1]
  6
CONTINUOUS
 62
    3
370
    0
100
AcDbCircle
 10
-496.5201325195312
 20
-505.0132656097412
 40
15.00000000000008
  0
CIRCLE
  5
541
100
AcDbEntity
  8
Unnamed [1]
  6
CONTINUOUS
 62
    3
370
    0
100
AcDbCircle
 10
-533.1867325195312
 20
-505.0132656097412
 40
15.00000000000008
  0
ENDBLK
  5
60
330
5E
100
AcDbEntity
  8
0
100
AcDbBlockEnd
  0
BLOCK
  5
62
330
61
100
AcDbEntity
  8
0
100
AcDbBlockBegin
  2
Cross piece-1
 70
    0
 10
0
 20
0
  3
Cross piece-1
  1

  0
LINE
  5
542
100
AcDbEntity
  8
Unnamed [1]
  6
CONTINUOUS
 62
    3
370
    0
100
AcDbLine
 10
-569.8533325195312
 20
-485.0132656097412
 11
-569.8533325195312
 21
-525.0132656097412
  0
LINE
  5
543
100
AcDbEntity
  8
Unnamed [1]
  6
CONTINUOUS
 62
    3
370
    0
100
AcDbLine
 10
-569.8533325195312
 20
-485.0132656097412
 11
-347.8533325195312
 21
-485.0132656097412
  0
LINE
  5
544
100
AcDbEntity
  8
Unnamed [1]
  6
CONTINUOUS
 62
    3
370
    0
100
AcDbLine
 10
-347.8533325195312
 20
-485.0132656097412
 11
-347.8533325195312
 21
-525.0132656097412
  0
LINE
  5
545
100
AcDbEntity
  8
Unnamed [1]
  6
CONTINUOUS
 62
    3
370
    0
100
AcDbLine
 10
-460.3533325195312
 20
-505.0132656097412
 11
-457.3533325195312
 21
-505.0132656097412
  0
LINE
  5
546
100
AcDbEntity
  8
Unnamed [1]
  6
CONTINUOUS
 62
    3
370
    0
100
AcDbLine
 10
-457.3533325195312
 20
-525.0132656097412
 11
-347.8533325195312
 21
-525.0132656097412
  0
LINE
  5
547
100
AcDbEntity
  8
Unnamed [1]
  6
CONTINUOUS
 62
    3
370
    0
100
AcDbLine
 10
-457.3533325195312
 20
-505.0132656097412
 11
-457.3533325195312
 21
-525.0132656097412
  0
LINE
  5
548
100
AcDbEntity
  8
Unnamed [1]
  6
CONTINUOUS
 62
    3
370
    0
100
AcDbLine
 10
-460.3533325195312
 20
-505.0132656097412
 11
-460.3533325195312
 21
-525.0132656097412
  0
LINE
  5
549
100
AcDbEntity
  8
Unnamed [1]
  6
CONTINUOUS
 62
    3
370
    0
100
AcDbLine
 10
-569.8533325195312
 20
-525.0132656097412
 11
-460.3533325195312
 21
-525.0132656097412
  0
CIRCLE
  5
54A
100
AcDbEntity
  8
Unnamed [1]
  6
CONTINUOUS
 62
    3
370
    0
100
AcDbCircle
 10
-384.5199325195312
 20
-505.0132656097411
 40
14.99999999999996
  0
CIRCLE
  5
54B
100
AcDbEntity
  8
Unnamed [1]
  6
CONTINUOUS
 62
    3
370
    0
100
AcDbCircle
 10
-421.1865325195312
 20
-505.0132656097411
 40
15
  0
CIRCLE
  5
54C
100
AcDbEntity
  8
Unnamed [1]
  6
CONTINUOUS
 62
    3
370
    0
100
AcDbCircle
 10
-496.5201325195312
 20
-505.0132656097412
 40
15.00000000000008
  0
CIRCLE
  5
54D
100
AcDbEntity
  8
Unnamed [1]
  6
CONTINUOUS
 62
    3
370
    0
100
AcDbCircle
 10
-533.1867325195312
 20
-505.0132656097412
 40
15.00000000000008
  0
ENDBLK
  5
63
330
61
100
AcDbEntity
  8
0
100
AcDbBlockEnd
  0
BLOCK
  5
65
330
64
100
AcDbEntity
  8
0
100
AcDbBlockBegin
  2
Cross piece-2
 70
    0
 10
0
 20
0
  3
Cross piece-2
  1

  0
LINE
  5
54E
100
AcDbEntity
  8
Unnamed [1]
  6
CONTINUOUS
 62
    3
370
    0
100
AcDbLine
 10
-569.8533325195312
 20
-485.0132656097412
 11
-569.8533325195312
 21
-525.0132656097412
  0
LINE
  5
54F
100
AcDbEntity
  8
Unnamed [1]
  6
CONTINUOUS
 62
    3
370
    0
100
AcDbLine
 10
-569.8533325195312
 20
-485.0132656097412
 11
-347.8533325195312
 21
-485.0132656097412
  0
LINE
  5
550
100
AcDbEntity
  8
Unnamed [1]
  6
CONTINUOUS
 62
    3
370
    0
100
AcDbLine
 10
-347.8533325195312
 20
-485.0132656097412
 11
-347.8533325195312
 21
-525.0132656097412
  0
LINE
  5
551
100
AcDbEntity
  8
Unnamed [1]
  6
CONTINUOUS
 62
    3
370
    0
100
AcDbLine
 10
-460.3533325195312
 20
-505.0132656097412
 11
-457.3533325195312
 21
-505.0132656097412
  0
LINE
  5
552
100
AcDbEntity
  8
Unnamed [1]
  6
CONTINUOUS
 62
    3
370
    0
100
AcDbLine
 10
-457.3533325195312
 20
-525.0132656097412
 11
-347.8533325195312
 21
-525.0132656097412
  0
LINE
  5
553
100
AcDbEntity
  8
Unnamed [1]
  6
CONTINUOUS
 62
    3
370
    0
100
AcDbLine
 10
-457.3533325195312
 20
-505.0132656097412
 11
-457.3533325195312
 21
-525.0132656097412
  0
LINE
  5
554
100
AcDbEntity
  8
Unnamed [1]
  6
CONTINUOUS
 62
    3
370
    0
100
AcDbLine
 10
-460.3533325195312
 20
-505.0132656097412
 11
-460.3533325195312
 21
-525.0132656097412
  0
LINE
  5
555
100
AcDbEntity
  8
Unnamed [1]
  6
CONTINUOUS
 62
    3
370
    0
100
AcDbLine
 10
-569.8533325195312
 20
-525.0132656097412
 11
-460.3533325195312
 21
-525.0132656097412
  0
CIRCLE
  5
556
100
AcDbEntity
  8
Unnamed [1]
  6
CONTINUOUS
 62
    3
370
    0
100
AcDbCircle
 10
-384.5199325195312
 20
-505.0132656097411
 40
14.99999999999996
  0
CIRCLE
  5
557
100
AcDbEntity
  8
Unnamed [1]
  6
CONTINUOUS
 62
    3
370
    0
100
AcDbCircle
 10
-421.1865325195312
 20
-505.0132656097411
 40
15
  0
CIRCLE
  5
558
100
AcDbEntity
  8
Unnamed [1]
  6
CONTINUOUS
 62
    3
370
    0
100
AcDbCircle
 10
-496.5201325195312
 20
-505.0132656097412
 40
15.00000000000008
  0
CIRCLE
  5
559
100
AcDbEntity
  8
Unnamed [1]
  6
CONTINUOUS
 62
    3
370
    0
100
AcDbCircle
 10
-533.1867325195312
 20
-505.0132656097412
 40
15.00000000000008
  0
ENDBLK
  5
66
330
64
100
AcDbEntity
  8
0
100
AcDbBlockEnd
  0
BLOCK
  5
68
330
67
100
AcDbEntity
  8
0
100
AcDbBlockBegin
  2
Cross piece-3
 70
    0
 10
0
 20
0
  3
Cross piece-3
  1

  0
LINE
  5
55A
100
AcDbEntity
  8
Unnamed [1]
  6
CONTINUOUS
 62
    3
370
    0
100
AcDbLine
 10
-569.8533325195312
 20
-485.0132656097412
 11
-569.8533325195312
 21
-525.0132656097412
  0
LINE
  5
55B
100
AcDbEntity
  8
Unnamed [1]
  6
CONTINUOUS
 62
    3
370
    0
100
AcDbLine
 10
-569.8533325195312
 20
-485.0132656097412
 11
-347.8533325195312
 21
-485.0132656097412
  0
LINE
  5
55C
100
AcDbEntity
  8
Unnamed [1]
  6
CONTINUOUS
 62
    3
370
    0
100
AcDbLine
 10
-347.8533325195312
 20
-485.0132656097412
 11
-347.8533325195312
 21
-525.0132656097412
  0
LINE
  5
55D
100
AcDbEntity
  8
Unnamed [1]
  6
CONTINUOUS
 62
    3
370
    0
100
AcDbLine
 10
-460.3533325195312
 20
-505.0132656097412
 11
-457.3533325195312
 21
-505.0132656097412
  0
LINE
  5
55E
100
AcDbEntity
  8
Unnamed [1]
  6
CONTINUOUS
 62
    3
370
    0
100
AcDbLine
 10
-457.3533325195312
 20
-525.0132656097412
 11
-347.8533325195312
 21
-525.0132656097412
  0
LINE
  5
55F
100
AcDbEntity
  8
Unnamed [1]
  6
CONTINUOUS
 62
    3
370
    0
100
AcDbLine
 10
-457.3533325195312
 20
-505.0132656097412
 11
-457.3533325195312
 21
-525.0132656097412
  0
LINE
  5
560
100
AcDbEntity
  8
Unnamed [1]
  6
CONTINUOUS
 62
    3
370
    0
100
AcDbLine
 10
-460.3533325195312
 20
-505.0132656097412
 11
-460.3533325195312
 21
-525.0132656097412
  0
LINE
  5
561
100
AcDbEntity
  8
Unnamed [1]
  6
CONTINUOUS
 62
    3
370
    0
100
AcDbLine
 10
-569.8533325195312
 20
-525.0132656097412
 11
-460.3533325195312
 21
-525.0132656097412
  0
CIRCLE
  5
562
100
AcDbEntity
  8
Unnamed [1]
  6
CONTINUOUS
 62
    3
370
    0
100
AcDbCircle
 10
-384.5199325195312
 20
-505.0132656097411
 40
14.99999999999996
  0
CIRCLE
  5
563
100
AcDbEntity
  8
Unnamed [1]
  6
CONTINUOUS
 62
    3
370
    0
100
AcDbCircle
 10
-421.1865325195312
 20
-505.0132656097411
 40
15
  0
CIRCLE
  5
564
100
AcDbEntity
  8
Unnamed [1]
  6
CONTINUOUS
 62
    3
370
    0
100
AcDbCircle
 10
-496.5201325195312
 20
-505.0132656097412
 40
15.00000000000008
  0
CIRCLE
  5
565
100
AcDbEntity
  8
Unnamed [1]
  6
CONTINUOUS
 62
    3
370
    0
100
AcDbCircle
 10
-533.1867325195312
 20
-505.0132656097412
 40
15.00000000000008
  0
ENDBLK
  5
69
330
67
100
AcDbEntity
  8
0
100
AcDbBlockEnd
  0
ENDSEC
  0
SECTION
  2
ENTITIES
  0
LINE
  5
566
100
AcDbEntity
  8
Unnamed [1]
  6
CONTINUOUS
 62
    3
370
    0
100
AcDbLine
 10
-184.1452612033347
 20
-191.2328292021593
 11
115.8547387966653
 21
-191.2328292021593
  0
LINE
  5
567
100
AcDbEntity
  8
Unnamed [1]
  6
CONTINUOUS
 62
    3
370
    0
100
AcDbLine
 10
-184.1452612033347
 20
-201.2328292021593
 11
377.8547387966654
 21
-201.2328292021593
  0
LINE
  5
568
100
AcDbEntity
  8
Unnamed [1]
  6
CONTINUOUS
 62
    3
370
    0
100
AcDbLine
 10
-184.1452612033347
 20
-321.2328292021593
 11
377.8547387966654
 21
-321.2328292021593
  0
LINE
  5
569
100
AcDbEntity
  8
Unnamed [1]
  6
CONTINUOUS
 62
    3
370
    0
100
AcDbLine
 10
-184.1452612033347
 20
-311.2328292021593
 11
377.8547387966654
 21
-311.2328292021593
  0
LINE
  5
56A
100
AcDbEntity
  8
Unnamed [1]
  6
CONTINUOUS
 62
    3
370
    0
100
AcDbLine
 10
-184.1452612033347
 20
-371.2328292021593
 11
377.8547387966654
 21
-371.2328292021593
  0
LINE
  5
56B
100
AcDbEntity
  8
Unnamed [1]
  6
CONTINUOUS
 62
    3
370
    0
100
AcDbLine
 10
-184.1452612033347
 20
-381.2328292021593
 11
377.8547387966654
 21
-381.2328292021593
  0
LINE
  5
56C
100
AcDbEntity
  8
Unnamed [1]
  6
CONTINUOUS
 62
    3
370
    0
100
AcDbLine
 10
-184.1452612033347
 20
-431.2328292021593
 11
-184.1452612033347
 21
-381.2328292021593
  0
LINE
  5
56D
100
AcDbEntity
  8
Unnamed [1]
  6
CONTINUOUS
 62
    3
370
    0
100
AcDbLine
 10
-184.1452612033347
 20
-431.2328292021593
 11
377.8547387966654
 21
-431.2328292021593
  0
LINE
  5
56E
100
AcDbEntity
  8
Unnamed [1]
  6
CONTINUOUS
 62
    3
370
    0
100
AcDbLine
 10
115.8547387966653
 20
-191.2328292021593
 11
115.8547387966653
 21
108.7671707978407
  0
LINE
  5
56F
100
AcDbEntity
  8
Unnamed [1]
  6
CONTINUOUS
 62
    3
370
    0
100
AcDbLine
 10
232.1047387966652
 20
42.76717079784075
 11
323.3547387966652
 21
42.76717079784075
  0
LINE
  5
570
100
AcDbEntity
  8
Unnamed [1]
  6
CONTINUOUS
 62
    3
370
    0
100
AcDbLine
 10
280.2297387966652
 20
52.76717079784075
 11
328.3547387966652
 21
52.76717079784075
  0
LINE
  5
571
100
AcDbEntity
  8
Unnamed [1]
  6
CONTINUOUS
 62
    3
370
    0
100
AcDbLine
 10
125.8547387966653
 20
2.767170797840748
 11
345.8547387966652
 21
2.767170797840748
  0
LINE
  5
572
100
AcDbEntity
  8
Unnamed [1]
  6
CONTINUOUS
 62
    3
370
    0
100
AcDbLine
 10
280.2297387966652
 20
22.76717079784075
 11
328.3547387966652
 21
22.76717079784075
  0
LINE
  5
573
100
AcDbEntity
  8
Unnamed [1]
  6
CONTINUOUS
 62
    3
370
    0
100
AcDbLine
 10
328.3547387966652
 20
17.76717079784075
 11
328.3547387966652
 21
22.76717079784075
  0
LINE
  5
574
100
AcDbEntity
  8
Unnamed [1]
  6
CONTINUOUS
 62
    3
370
    0
100
AcDbLine
 10
125.8547387966653
 20
-27.23282920215925
 11
345.8547387966652
 21
-27.23282920215925
  0
LINE
  5
575
100
AcDbEntity
  8
Unnamed [1]
  6
CONTINUOUS
 62
    3
370
    0
100
AcDbLine
 10
-184.1452612033347
 20
-191.2328292021593
 11
-184.1452612033347
 21
108.7671707978407
  0
LINE
  5
576
100
AcDbEntity
  8
Unnamed [1]
  6
CONTINUOUS
 62
    3
370
    0
100
AcDbLine
 10
-184.1452612033347
 20
-261.2328292021592
 11
377.8547387966654
 21
-261.2328292021592
  0
LINE
  5
577
100
AcDbEntity
  8
Unnamed [1]
  6
CONTINUOUS
 62
    3
370
    0
100
AcDbLine
 10
377.8547387966654
 20
-311.2328292021593
 11
377.8547387966654
 21
-261.2328292021592
  0
LINE
  5
578
100
AcDbEntity
  8
Unnamed [1]
  6
CONTINUOUS
 62
    3
370
    0
100
AcDbLine
 10
377.8547387966654
 20
-371.2328292021593
 11
377.8547387966654
 21
-321.2328292021593
  0
LINE
  5
579
100
AcDbEntity
  8
Unnamed [1]
  6
CONTINUOUS
 62
    3
370
    0
100
AcDbLine
 10
-184.1452612033347
 20
-251.2328292021593
 11
377.8547387966654
 21
-251.2328292021593
  0
LINE
  5
57A
100
AcDbEntity
  8
Unnamed [1]
  6
CONTINUOUS
 62
    3
370
    0
100
AcDbLine
 10
-184.1452612033347
 20
-311.2328292021593
 11
-184.1452612033347
 21
-261.2328292021592
  0
LINE
  5
57B
100
AcDbEntity
  8
Unnamed [1]
  6
CONTINUOUS
 62
    3
370
    0
100
AcDbLine
 10
-184.1452612033347
 20
-371.2328292021593
 11
-184.1452612033347
 21
-321.2328292021593
  0
LINE
  5
57C
100
AcDbEntity
  8
Unnamed [1]
  6
CONTINUOUS
 62
    3
370
    0
100
AcDbLine
 10
280.2297387966652
 20
52.76717079784075
 11
280.2297387966652
 21
62.76717079784075
  0
LINE
  5
57D
100
AcDbEntity
  8
Unnamed [1]
  6
CONTINUOUS
 62
    3
370
    0
100
AcDbLine
 10
232.1047387966652
 20
62.76717079784075
 11
280.2297387966652
 21
62.76717079784075
  0
LINE
  5
57E
100
AcDbEntity
  8
Unnamed [1]
  6
CONTINUOUS
 62
    3
370
    0
100
AcDbLine
 10
232.1047387966652
 20
42.76717079784075
 11
232.1047387966652
 21
62.76717079784075
  0
LINE
  5
57F
100
AcDbEntity
  8
Unnamed [1]
  6
CONTINUOUS
 62
    3
370
    0
100
AcDbLine
 10
232.1047387966652
 20
12.76717079784075
 11
323.3547387966652
 21
12.76717079784075
  0
LINE
  5
580
100
AcDbEntity
  8
Unnamed [1]
  6
CONTINUOUS
 62
    3
370
    0
100
AcDbLine
 10
323.3547387966652
 20
12.76717079784075
 11
328.3547387966652
 21
17.76717079784075
  0
LINE
  5
581
100
AcDbEntity
  8
Unnamed [1]
  6
CONTINUOUS
 62
    3
370
    0
100
AcDbLine
 10
323.3547387966652
 20
42.76717079784075
 11
328.3547387966652
 21
47.76717079784075
  0
LINE
  5
582
100
AcDbEntity
  8
Unnamed [1]
  6
CONTINUOUS
 62
    3
370
    0
100
AcDbLine
 10
328.3547387966652
 20
47.76717079784075
 11
328.3547387966652
 21
52.76717079784075
  0
LINE
  5
583
100
AcDbEntity
  8
Unnamed [1]
  6
CONTINUOUS
 62
    3
370
    0
100
AcDbLine
 10
-184.1452612033347
 20
108.7671707978407
 11
115.8547387966653
 21
108.7671707978407
  0
LINE
  5
584
100
AcDbEntity
  8
Unnamed [1]
  6
CONTINUOUS
 62
    3
370
    0
100
AcDbLine
 10
125.8547387966653
 20
12.76717079784075
 11
125.8547387966653
 21
32.76717079784075
  0
LINE
  5
585
100
AcDbEntity
  8
Unnamed [1]
  6
CONTINUOUS
 62
    3
370
    0
100
AcDbLine
 10
377.8547387966654
 20
-431.2328292021593
 11
377.8547387966654
 21
-381.2328292021593
  0
LINE
  5
586
100
AcDbEntity
  8
Unnamed [1]
  6
CONTINUOUS
 62
    3
370
    0
100
AcDbLine
 10
377.8547387966654
 20
-251.2328292021593
 11
377.8547387966654
 21
-201.2328292021593
  0
LINE
  5
587
100
AcDbEntity
  8
Unnamed [1]
  6
CONTINUOUS
 62
    3
370
    0
100
AcDbLine
 10
-184.1452612033347
 20
-251.2328292021593
 11
-184.1452612033347
 21
-201.2328292021593
  0
LINE
  5
588
100
AcDbEntity
  8
Unnamed [1]
  6
CONTINUOUS
 62
    3
370
    0
100
AcDbLine
 10
280.2297387966652
 20
22.76717079784075
 11
280.2297387966652
 21
32.76717079784075
  0
LINE
  5
589
100
AcDbEntity
  8
Unnamed [1]
  6
CONTINUOUS
 62
    3
370
    0
100
AcDbLine
 10
232.1047387966652
 20
32.76717079784075
 11
280.2297387966652
 21
32.76717079784075
  0
LINE
  5
58A
100
AcDbEntity
  8
Unnamed [1]
  6
CONTINUOUS
 62
    3
370
    0
100
AcDbLine
 10
232.1047387966652
 20
12.76717079784075
 11
232.1047387966652
 21
32.76717079784075
  0
LINE
  5
58B
100
AcDbEntity
  8
Unnamed [1]
  6
CONTINUOUS
 62
    3
370
    0
100
AcDbLine
 10
125.8547387966653
 20
42.76717079784075
 11
125.8547387966653
 21
62.76717079784075
  0
LINE
  5
58C
100
AcDbEntity
  8
Unnamed [1]
  6
CONTINUOUS
 62
    3
370
    0
100
AcDbLine
 10
222.1047387966652
 20
17.76717079784075
 11
222.1047387966652
 21
22.76717079784075
  0
LINE
  5
58D
100
AcDbEntity
  8
Unnamed [1]
  6
CONTINUOUS
 62
    3
370
    0
100
AcDbLine
 10
125.8547387966653
 20
62.76717079784075
 11
173.9797387966653
 21
62.76717079784075
  0
LINE
  5
58E
100
AcDbEntity
  8
Unnamed [1]
  6
CONTINUOUS
 62
    3
370
    0
100
AcDbLine
 10
222.1047387966652
 20
47.76717079784075
 11
222.1047387966652
 21
52.76717079784075
  0
LINE
  5
58F
100
AcDbEntity
  8
Unnamed [1]
  6
CONTINUOUS
 62
    3
370
    0
100
AcDbLine
 10
217.1047387966652
 20
42.76717079784075
 11
222.1047387966652
 21
47.76717079784075
  0
LINE
  5
590
100
AcDbEntity
  8
Unnamed [1]
  6
CONTINUOUS
 62
    3
370
    0
100
AcDbLine
 10
173.9797387966653
 20
52.76717079784075
 11
173.9797387966653
 21
62.76717079784075
  0
LINE
  5
591
100
AcDbEntity
  8
Unnamed [1]
  6
CONTINUOUS
 62
    3
370
    0
100
AcDbLine
 10
125.8547387966653
 20
32.76717079784075
 11
173.9797387966653
 21
32.76717079784075
  0
LINE
  5
592
100
AcDbEntity
  8
Unnamed [1]
  6
CONTINUOUS
 62
    3
370
    0
100
AcDbLine
 10
217.1047387966652
 20
12.76717079784075
 11
222.1047387966652
 21
17.76717079784075
  0
LINE
  5
593
100
AcDbEntity
  8
Unnamed [1]
  6
CONTINUOUS
 62
    3
370
    0
100
AcDbLine
 10
173.9797387966653
 20
22.76717079784075
 11
173.9797387966653
 21
32.76717079784075
  0
LINE
  5
594
100
AcDbEntity
  8
Unnamed [1]
  6
CONTINUOUS
 62
    3
370
    0
100
AcDbLine
 10
173.9797387966653
 20
22.76717079784075
 11
222.1047387966652
 21
22.76717079784075
  0
LINE
  5
595
100
AcDbEntity
  8
Unnamed [1]
  6
CONTINUOUS
 62
    3
370
    0
100
AcDbLine
 10
125.8547387966653
 20
12.76717079784075
 11
217.1047387966652
 21
12.76717079784075
  0
LINE
  5
596
100
AcDbEntity
  8
Unnamed [1]
  6
CONTINUOUS
 62
    3
370
    0
100
AcDbLine
 10
125.8547387966653
 20
42.76717079784075
 11
217.1047387966652
 21
42.76717079784075
  0
LINE
  5
597
100
AcDbEntity
  8
Unnamed [1]
  6
CONTINUOUS
 62
    3
370
    0
100
AcDbLine
 10
173.9797387966653
 20
52.76717079784075
 11
222.1047387966652
 21
52.76717079784075
  0
ARC
  5
598
100
AcDbEntity
  8
Unnamed [1]
  6
CONTINUOUS
 62
    3
370
    0
100
AcDbCircle
 10
365.8547387966652
 20
-12.23282920215925
 40
25
100
AcDbArc
 50
143.1301023541562
 51
216.8698976458438
  0
ARC
  5
599
100
AcDbEntity
  8
Unnamed [1]
  6
CONTINUOUS
 62
    3
370
    0
100
AcDbCircle
 10
105.8547387966652
 20
-12.23282920215925
 40
25
100
AcDbArc
 50
323.130102354156
 51
36.86989764584402
  0
CIRCLE
  5
59A
100
AcDbEntity
  8
Unnamed [1]
  6
CONTINUOUS
 62
    3
370
    0
100
AcDbCircle
 10
202.8547387966652
 20
-114.2328292021593
 40
77
  0
CIRCLE
  5
59B
100
AcDbEntity
  8
Unnamed [1]
  6
CONTINUOUS
 62
    3
370
    0
100
AcDbCircle
 10
-34.14526120333466
 20
-41.23282920215925
 40
64
  0
CIRCLE
  5
59C
100
AcDbEntity
  8
Unnamed [1]
  6
CONTINUOUS
 62
    3
370
    0
100
AcDbCircle
 10
-159.1452612033347
 20
-346.2328292021593
 40
4.5
  0
CIRCLE
  5
59D
100
AcDbEntity
  8
Unnamed [1]
  6
CONTINUOUS
 62
    3
370
    0
100
AcDbCircle
 10
-159.1452612033347
 20
-286.2328292021593
 40
4.5
  0
CIRCLE
  5
59E
100
AcDbEntity
  8
Unnamed [1]
  6
CONTINUOUS
 62
    3
370
    0
100
AcDbCircle
 10
202.8547387966652
 20
-114.2328292021593
 40
64
  0
CIRCLE
  5
59F
100
AcDbEntity
  8
Unnamed [1]
  6
CONTINUOUS
 62
    3
370
    0
100
AcDbCircle
 10
90.85473879666523
 20
-41.23282920215925
 40
4.5
  0
CIRCLE
  5
5A0
100
AcDbEntity
  8
Unnamed [1]
  6
CONTINUOUS
 62
    3
370
    0
100
AcDbCircle
 10
-34.14526120333466
 20
-166.2328292021593
 40
4.5
  0
CIRCLE
  5
5A1
100
AcDbEntity
  8
Unnamed [1]
  6
CONTINUOUS
 62
    3
370
    0
100
AcDbCircle
 10
-159.1452612033347
 20
-406.2328292021593
 40
4.5
  0
CIRCLE
  5
5A2
100
AcDbEntity
  8
Unnamed [1]
  6
CONTINUOUS
 62
    3
370
    0
100
AcDbCircle
 10
-34.14526120333466
 20
83.76717079784075
 40
4.5
  0
CIRCLE
  5
5A3
100
AcDbEntity
  8
Unnamed [1]
  6
CONTINUOUS
 62
    3
370
    0
100
AcDbCircle
 10
-159.1452612033347
 20
-226.2328292021593
 40
4.5
  0
CIRCLE
  5
5A4
100
AcDbEntity
  8
Unnamed [1]
  6
CONTINUOUS
 62
    3
370
    0
100
AcDbCircle
 10
-159.1452612033347
 20
-41.23282920215925
 40
4.5
  0
INSERT
  5
5A5
100
AcDbEntity
  8
Defpoints
  6
ByLayer
 62
  256
370
   -1
100
AcDbBlockReference
  2
James
 10
655.4966700373629
 20
-15.64846161892909
 30
0
 41
1
 42
1
 43
0
 50
0
 70
    1
 71
    1
 44
0
 45
0
  0
INSERT
  5
5A6
100
AcDbEntity
  8
Defpoints
  6
ByLayer
 62
  256
370
   -1
100
AcDbBlockReference
  2
Cross piece
 10
388.1362857799956
 20
38.67550178590703
 30
0
 41
1
 42
1
 43
0
 50
0
 70
    1
 71
    1
 44
0
 45
0
  0
INSERT
  5
5A7
100
AcDbEntity
  8
Defpoints
  6
ByLayer
 62
  256
370
   -1
100
AcDbBlockReference
  2
Cross piece-0
 10
631.2394398628398
 20
35.91296594405653
 30
0
 41
1
 42
1
 43
0
 50
0
 70
    1
 71
    1
 44
0
 45
0
  0
INSERT
  5
5A8
100
AcDbEntity
  8
Defpoints
  6
ByLayer
 62
  256
370
   -1
100
AcDbBlockReference
  2
Cross piece-2
 10
388.9183011170542
 20
-10.68456871200698
 30
0
 41
1
 42
1
 43
0
 50
0
 70
    1
 71
    1
 44
0
 45
0
  0
INSERT
  5
5A9
100
AcDbEntity
  8
Defpoints
  6
ByLayer
 62
  256
370
   -1
100
AcDbBlockReference
  2
Cross piece-3
 10
627.7301582779832
 20
-10.336873863859
 30
0
 41
1
 42
1
 43
0
 50
0
 70
    1
 71
    1
 44
0
 45
0
  0
ENDSEC
  0
SECTION
  2
OBJECTS
  0
DICTIONARY
  5
C
330
0
100
AcDbDictionary
281
    1
  3
ACAD_GROUP
350
D
  0
DICTIONARY
  5
D
330
C
100
AcDbDictionary
281
    1
  0
PLOTSETTINGS
  5
5AA
100
AcDbPlotSettings
  6
1x1
 40
0
 41
0
 42
0
 43
0
  0
ENDSEC
  0
EOF
